  0
SECTION
  2
HEADER
  9
$ACADVER
  1
AC1015
  9
$ACADMAINTVER
 70
     6
  9
$DWGCODEPAGE
  3
ANSI_1254
  9
$INSBASE
 10
0.0
 20
0.0
 30
0.0
  9
$EXTMIN
 10
0.0
 20
0.0
 30
0.0
  9
$EXTMAX
 10
279.4
 20
215.9
 30
0.0
  9
$LIMMIN
 10
0.0
 20
0.0
  9
$LIMMAX
 10
279.4
 20
215.9
  9
$ORTHOMODE
 70
     0
  9
$REGENMODE
 70
     1
  9
$FILLMODE
 70
     1
  9
$QTEXTMODE
 70
     0
  9
$MIRRTEXT
 70
     1
  9
$LTSCALE
 40
1.0
  9
$ATTMODE
 70
     1
  9
$TEXTSIZE
 40
3.5
  9
$TRACEWID
 40
1.0
  9
$TEXTSTYLE
  7
Standard
  9
$CLAYER
  8
0
  9
$CELTYPE
  6
ByLayer
  9
$CECOLOR
 62
   256
  9
$CELTSCALE
 40
1.0
  9
$DISPSILH
 70
     0
  9
$DIMSCALE
 40
1.0
  9
$DIMASZ
 40
3.5
  9
$DIMEXO
 40
1.0
  9
$DIMDLI
 40
3.75
  9
$DIMRND
 40
0.0
  9
$DIMDLE
 40
0.0
  9
$DIMEXE
 40
1.0
  9
$DIMTP
 40
0.0
  9
$DIMTM
 40
0.0
  9
$DIMTXT
 40
3.5
  9
$DIMCEN
 40
2.5
  9
$DIMTSZ
 40
0.0
  9
$DIMTOL
 70
     0
  9
$DIMLIM
 70
     0
  9
$DIMTIH
 70
     1
  9
$DIMTOH
 70
     1
  9
$DIMSE1
 70
     0
  9
$DIMSE2
 70
     0
  9
$DIMTAD
 70
     1
  9
$DIMZIN
 70
     0
  9
$DIMBLK
  1

  9
$DIMASO
 70
     1
  9
$DIMSHO
 70
     1
  9
$DIMPOST
  1

  9
$DIMAPOST
  1

  9
$DIMALT
 70
     0
  9
$DIMALTD
 70
     3
  9
$DIMALTF
 40
0.0393700787
  9
$DIMLFAC
 40
1.0
  9
$DIMTOFL
 70
     1
  9
$DIMTVP
 40
0.0
  9
$DIMTIX
 70
     0
  9
$DIMSOXD
 70
     0
  9
$DIMSAH
 70
     0
  9
$DIMBLK1
  1

  9
$DIMBLK2
  1

  9
$DIMSTYLE
  2
ISO-25
  9
$DIMCLRD
 70
     0
  9
$DIMCLRE
 70
     0
  9
$DIMCLRT
 70
     0
  9
$DIMTFAC
 40
1.0
  9
$DIMGAP
 40
1.524
  9
$DIMJUST
 70
     0
  9
$DIMSD1
 70
     0
  9
$DIMSD2
 70
     0
  9
$DIMTOLJ
 70
     0
  9
$DIMTZIN
 70
     0
  9
$DIMALTZ
 70
     0
  9
$DIMALTTZ
 70
     0
  9
$DIMUPT
 70
     0
  9
$DIMDEC
 70
     2
  9
$DIMTDEC
 70
     2
  9
$DIMALTU
 70
     2
  9
$DIMALTTD
 70
     3
  9
$DIMTXSTY
  7
Standard
  9
$DIMAUNIT
 70
     0
  9
$DIMADEC
 70
     2
  9
$DIMALTRND
 40
0.0
  9
$DIMAZIN
 70
     0
  9
$DIMDSEP
 70
    44
  9
$DIMATFIT
 70
     3
  9
$DIMFRAC
 70
     0
  9
$DIMLDRBLK
  1

  9
$DIMLUNIT
 70
     2
  9
$DIMLWD
 70
    -2
  9
$DIMLWE
 70
    -2
  9
$DIMTMOVE
 70
     0
  9
$LUNITS
 70
     2
  9
$LUPREC
 70
     2
  9
$SKETCHINC
 40
1.0
  9
$FILLETRAD
 40
10.0
  9
$AUNITS
 70
     0
  9
$AUPREC
 70
     2
  9
$MENU
  1
.
  9
$ELEVATION
 40
0.0
  9
$PELEVATION
 40
0.0
  9
$THICKNESS
 40
0.0
  9
$LIMCHECK
 70
     0
  9
$CHAMFERA
 40
0.0
  9
$CHAMFERB
 40
0.0
  9
$CHAMFERC
 40
0.0
  9
$CHAMFERD
 40
0.0
  9
$SKPOLY
 70
     0
  9
$TDCREATE
 40
2459935.699918437
  9
$TDUCREATE
 40
2459935.574918437
  9
$TDUPDATE
 40
2459935.699918623
  9
$TDUUPDATE
 40
2459935.574918623
  9
$TDINDWG
 40
0.0000000116
  9
$TDUSRTIMER
 40
0.0000000116
  9
$USRTIMER
 70
     1
  9
$ANGBASE
 50
0.0
  9
$ANGDIR
 70
     0
  9
$PDMODE
 70
     0
  9
$PDSIZE
 40
-1.0
  9
$PLINEWID
 40
0.0
  9
$SPLFRAME
 70
     0
  9
$SPLINETYPE
 70
     6
  9
$SPLINESEGS
 70
     8
  9
$HANDSEED
  5
ED
  9
$SURFTAB1
 70
     6
  9
$SURFTAB2
 70
     6
  9
$SURFTYPE
 70
     6
  9
$SURFU
 70
     6
  9
$SURFV
 70
     6
  9
$UCSBASE
  2

  9
$UCSNAME
  2

  9
$UCSORG
 10
0.0
 20
0.0
 30
0.0
  9
$UCSXDIR
 10
1.0
 20
0.0
 30
0.0
  9
$UCSYDIR
 10
0.0
 20
1.0
 30
0.0
  9
$UCSORTHOREF
  2

  9
$UCSORTHOVIEW
 70
     0
  9
$UCSORGTOP
 10
0.0
 20
0.0
 30
0.0
  9
$UCSORGBOTTOM
 10
0.0
 20
0.0
 30
0.0
  9
$UCSORGLEFT
 10
0.0
 20
0.0
 30
0.0
  9
$UCSORGRIGHT
 10
0.0
 20
0.0
 30
0.0
  9
$UCSORGFRONT
 10
0.0
 20
0.0
 30
0.0
  9
$UCSORGBACK
 10
0.0
 20
0.0
 30
0.0
  9
$PUCSBASE
  2

  9
$PUCSNAME
  2

  9
$PUCSORG
 10
0.0
 20
0.0
 30
0.0
  9
$PUCSXDIR
 10
1.0
 20
0.0
 30
0.0
  9
$PUCSYDIR
 10
0.0
 20
1.0
 30
0.0
  9
$PUCSORTHOREF
  2

  9
$PUCSORTHOVIEW
 70
     0
  9
$PUCSORGTOP
 10
0.0
 20
0.0
 30
0.0
  9
$PUCSORGBOTTOM
 10
0.0
 20
0.0
 30
0.0
  9
$PUCSORGLEFT
 10
0.0
 20
0.0
 30
0.0
  9
$PUCSORGRIGHT
 10
0.0
 20
0.0
 30
0.0
  9
$PUCSORGFRONT
 10
0.0
 20
0.0
 30
0.0
  9
$PUCSORGBACK
 10
0.0
 20
0.0
 30
0.0
  9
$USERI1
 70
     0
  9
$USERI2
 70
     0
  9
$USERI3
 70
     0
  9
$USERI4
 70
     0
  9
$USERI5
 70
     0
  9
$USERR1
 40
0.0
  9
$USERR2
 40
0.0
  9
$USERR3
 40
0.0
  9
$USERR4
 40
0.0
  9
$USERR5
 40
0.0
  9
$WORLDVIEW
 70
     1
  9
$SHADEDGE
 70
     3
  9
$SHADEDIF
 70
    70
  9
$TILEMODE
 70
     1
  9
$MAXACTVP
 70
    64
  9
$PINSBASE
 10
0.0
 20
0.0
 30
0.0
  9
$PLIMCHECK
 70
     0
  9
$PEXTMIN
 10
1.0000000000E+20
 20
1.0000000000E+20
 30
1.0000000000E+20
  9
$PEXTMAX
 10
-1.0000000000E+20
 20
-1.0000000000E+20
 30
-1.0000000000E+20
  9
$PLIMMIN
 10
0.0
 20
0.0
  9
$PLIMMAX
 10
420.0
 20
297.0
  9
$UNITMODE
 70
     0
  9
$VISRETAIN
 70
     1
  9
$PLINEGEN
 70
     0
  9
$PSLTSCALE
 70
     1
  9
$TREEDEPTH
 70
  3020
  9
$CMLSTYLE
  2
Standard
  9
$CMLJUST
 70
     0
  9
$CMLSCALE
 40
20.0
  9
$PROXYGRAPHICS
 70
     1
  9
$MEASUREMENT
 70
     1
  9
$CELWEIGHT
370
    -1
  9
$ENDCAPS
280
     0
  9
$JOINSTYLE
280
     0
  9
$LWDISPLAY
290
     1
  9
$INSUNITS
 70
     4
  9
$HYPERLINKBASE
  1

  9
$STYLESHEET
  1

  9
$XEDIT
290
     1
  9
$CEPSNTYPE
380
     0
  9
$PSTYLEMODE
290
     1
  9
$FINGERPRINTGUID
  2
{a9739136-3a4c-494a-b95a-6c5c7e55ea2f}
  9
$VERSIONGUID
  2
{FAEB1C32-E019-11D5-929B-00C0DF256EC4}
  9
$EXTNAMES
290
     1
  9
$PSVPSCALE
 40
0.0
  9
$OLESTARTUP
290
     0
  0
ENDSEC
  0
SECTION
  2
CLASSES
  0
CLASS
  1
ACDBDICTIONARYWDFLT
  2
AcDbDictionaryWithDefault
  3
ObjectDBX Classes
 90
        0
280
     0
281
     0
  0
CLASS
  1
VISUALSTYLE
  2
AcDbVisualStyle
  3
ObjectDBX Classes
 90
     4095
280
     0
281
     0
  0
CLASS
  1
MATERIAL
  2
AcDbMaterial
  3
ObjectDBX Classes
 90
     1153
280
     0
281
     0
  0
CLASS
  1
SCALE
  2
AcDbScale
  3
ObjectDBX Classes
 90
     1153
280
     0
281
     0
  0
CLASS
  1
TABLESTYLE
  2
AcDbTableStyle
  3
ObjectDBX Classes
 90
     4095
280
     0
281
     0
  0
CLASS
  1
MLEADERSTYLE
  2
AcDbMLeaderStyle
  3
ACDB_MLEADERSTYLE_CLASS
 90
     4095
280
     0
281
     0
  0
CLASS
  1
SUN
  2
AcDbSun
  3
SCENEOE
 90
     1153
280
     0
281
     0
  0
CLASS
  1
ACDBPLACEHOLDER
  2
AcDbPlaceHolder
  3
ObjectDBX Classes
 90
        0
280
     0
281
     0
  0
CLASS
  1
LAYOUT
  2
AcDbLayout
  3
ObjectDBX Classes
 90
        0
280
     0
281
     0
  0
ENDSEC
  0
SECTION
  2
TABLES
  0
TABLE
  2
VPORT
  5
8
330
0
100
AcDbSymbolTable
 70
     1
  0
VPORT
  5
29
330
8
100
AcDbSymbolTableRecord
100
AcDbViewportTableRecord
  2
*Active
 70
     0
 10
0.0
 20
0.0
 11
1.0
 21
1.0
 12
139.7
 22
107.95
 13
0.0
 23
0.0
 14
10.0
 24
10.0
 15
10.0
 25
10.0
 16
0.0
 26
0.0
 36
1.0
 17
0.0
 27
0.0
 37
0.0
 40
215.9
 41
1.2941176471
 42
50.0
 43
0.0
 44
0.0
 50
0.0
 51
0.0
 71
     0
 72
  2000
 73
     1
 74
     3
 75
     0
 76
     0
 77
     0
 78
     0
281
     0
 65
     1
110
0.0
120
0.0
130
0.0
111
1.0
121
0.0
131
0.0
112
0.0
122
1.0
132
0.0
 79
     0
146
0.0
  0
ENDTAB
  0
TABLE
  2
LTYPE
  5
5
330
0
100
AcDbSymbolTable
 70
     6
  0
LTYPE
  5
14
330
5
100
AcDbSymbolTableRecord
100
AcDbLinetypeTableRecord
  2
ByBlock
 70
     0
  3

 72
    65
 73
     0
 40
0.0
  0
LTYPE
  5
15
330
5
100
AcDbSymbolTableRecord
100
AcDbLinetypeTableRecord
  2
ByLayer
 70
     0
  3

 72
    65
 73
     0
 40
0.0
  0
LTYPE
  5
16
330
5
100
AcDbSymbolTableRecord
100
AcDbLinetypeTableRecord
  2
Continuous
 70
     0
  3
Solid line
 72
    65
 73
     0
 40
0.0
  0
LTYPE
  5
6E
330
5
100
AcDbSymbolTableRecord
100
AcDbLinetypeTableRecord
  2
HIDDEN
 70
     0
  3
Hidden __ __ __ __ __ __ __ __ __ __ __ __ __ __
 72
    65
 73
     2
 40
1.905
 49
1.27
 74
     0
 49
-0.635
 74
     0
  0
LTYPE
  5
6F
330
5
100
AcDbSymbolTableRecord
100
AcDbLinetypeTableRecord
  2
PHANTOM
 70
     0
  3
Phantom ______  __  __  ______  __  __  ______
 72
    65
 73
     6
 40
12.7
 49
6.35
 74
     0
 49
-1.27
 74
     0
 49
1.27
 74
     0
 49
-1.27
 74
     0
 49
1.27
 74
     0
 49
-1.27
 74
     0
  0
LTYPE
  5
70
330
5
100
AcDbSymbolTableRecord
100
AcDbLinetypeTableRecord
  2
CENTER
 70
     0
  3
Center ____ _ ____ _ ____ _ ____ _ ____ _ ____
 72
    65
 73
     4
 40
10.16
 49
6.35
 74
     0
 49
-1.27
 74
     0
 49
1.27
 74
     0
 49
-1.27
 74
     0
  0
LTYPE
  5
71
330
5
100
AcDbSymbolTableRecord
100
AcDbLinetypeTableRecord
  2
CENTERX2
 70
     0
  3
Center (2x) ________  __  ________  __  _____
 72
    65
 73
     4
 40
20.32
 49
12.7
 74
     0
 49
-2.54
 74
     0
 49
2.54
 74
     0
 49
-2.54
 74
     0
  0
LTYPE
  5
72
330
5
100
AcDbSymbolTableRecord
100
AcDbLinetypeTableRecord
  2
DOT2
 70
     0
  3
Dot (.5x) ........................................
 72
    65
 73
     2
 40
0.635
 49
0.0
 74
     0
 49
-0.635
 74
     0
  0
ENDTAB
  0
TABLE
  2
LAYER
  5
2
330
0
100
AcDbSymbolTable
 70
    17
  0
LAYER
  5
10
330
2
100
AcDbSymbolTableRecord
100
AcDbLayerTableRecord
  2
0
 70
     0
 62
     7
  6
Continuous
370
    -3
390
F
  0
LAYER
  5
73
330
2
100
AcDbSymbolTableRecord
100
AcDbLayerTableRecord
  2
FORMAT
 70
     0
 62
     7
  6
Continuous
370
    -3
390
F
  0
LAYER
  5
74
330
2
100
AcDbSymbolTableRecord
100
AcDbLayerTableRecord
  2
YARDIMCI_GEOMETRI
 70
     0
 62
    -6
  6
Continuous
290
     0
370
    -3
390
F
  0
LAYER
  5
75
330
2
100
AcDbSymbolTableRecord
100
AcDbLayerTableRecord
  2
SAYFA_CERCEVESI
 70
     0
 62
     7
  6
Continuous
370
    25
390
F
  0
LAYER
  5
76
330
2
100
AcDbSymbolTableRecord
100
AcDbLayerTableRecord
  2
ANTET
 70
     0
 62
     7
  6
Continuous
370
    -3
390
F
  0
LAYER
  5
77
330
2
100
AcDbSymbolTableRecord
100
AcDbLayerTableRecord
  2
OLCU
 70
     0
 62
   150
  6
Continuous
370
    -3
390
F
  0
LAYER
  5
78
330
2
100
AcDbSymbolTableRecord
100
AcDbLayerTableRecord
  2
METIN
 70
     0
 62
    96
  6
Continuous
370
    -3
390
F
  0
LAYER
  5
79
330
2
100
AcDbSymbolTableRecord
100
AcDbLayerTableRecord
  2
BALON
 70
     0
 62
     5
  6
Continuous
370
    -3
390
F
  0
LAYER
  5
7A
330
2
100
AcDbSymbolTableRecord
100
AcDbLayerTableRecord
  2
VURGU
 70
     0
 62
     7
  6
Continuous
370
    -3
390
F
  0
LAYER
  5
7B
330
2
100
AcDbSymbolTableRecord
100
AcDbLayerTableRecord
  2
SILIK
 70
     0
 62
     7
  6
Continuous
370
    -3
390
F
  0
LAYER
  5
7C
330
2
100
AcDbSymbolTableRecord
100
AcDbLayerTableRecord
  2
MODEL
 70
     0
 62
     7
  6
Continuous
370
    -3
390
F
  0
LAYER
  5
7D
330
2
100
AcDbSymbolTableRecord
100
AcDbLayerTableRecord
  2
DETAYLANDıRMA
 70
     0
 62
   190
  6
Continuous
370
    -3
390
F
  0
LAYER
  5
7E
330
2
100
AcDbSymbolTableRecord
100
AcDbLayerTableRecord
  2
TOLERANS
 70
     0
 62
   230
  6
Continuous
370
    -3
390
F
  0
LAYER
  5
7F
330
2
100
AcDbSymbolTableRecord
100
AcDbLayerTableRecord
  2
MERKEZ_CIZGILERI
 70
     0
 62
    30
  6
Continuous
370
    -3
390
F
  0
LAYER
  5
80
330
2
100
AcDbSymbolTableRecord
100
AcDbLayerTableRecord
  2
KESIT-DETAY_CIZGILERI
 70
     0
 62
     7
  6
Continuous
370
    -3
390
F
  0
LAYER
  5
81
330
2
100
AcDbSymbolTableRecord
100
AcDbLayerTableRecord
  2
\U+041E\U+0421\U+0415\U+0412\U+042B\U+0415
 70
     0
 62
     7
  6
Continuous
370
    -3
390
F
  0
LAYER
  5
82
330
2
100
AcDbSymbolTableRecord
100
AcDbLayerTableRecord
  2
\U+0412\U+041E\U+0414\U+042F\U+041D\U+042B\U+0415_\U+0417\U+041D\U+0410\U+041A\U+0418
 70
     0
 62
    11
  6
Continuous
370
    -3
390
F
  0
ENDTAB
  0
TABLE
  2
STYLE
  5
3
330
0
100
AcDbSymbolTable
 70
     1
  0
STYLE
  5
11
330
3
100
AcDbSymbolTableRecord
100
AcDbTextStyleTableRecord
  2
Standard
 70
     0
 40
0.0
 41
1.0
 50
0.0
 71
     0
 42
3.5
  3
txt
  4

  0
ENDTAB
  0
TABLE
  2
VIEW
  5
6
330
0
100
AcDbSymbolTable
 70
     0
  0
ENDTAB
  0
TABLE
  2
UCS
  5
7
330
0
100
AcDbSymbolTable
 70
     0
  0
ENDTAB
  0
TABLE
  2
APPID
  5
9
330
0
100
AcDbSymbolTable
 70
     1
  0
APPID
  5
12
330
9
100
AcDbSymbolTableRecord
100
AcDbRegAppTableRecord
  2
ACAD
 70
     0
  0
ENDTAB
  0
TABLE
  2
DIMSTYLE
  5
A
330
0
100
AcDbSymbolTable
 70
     1
100
AcDbDimStyleTable
  0
DIMSTYLE
105
27
330
A
100
AcDbSymbolTableRecord
100
AcDbDimStyleTableRecord
  2
ISO-25
 70
     0
 41
2.5
 42
0.625
 43
3.75
 44
1.25
 73
     0
 74
     0
 77
     1
 78
     8
140
2.5
141
2.5
143
0.0393700787
147
0.625
171
     3
172
     1
178
     0
271
     2
272
     2
274
     3
278
    44
283
     0
284
     8
340
11
  0
ENDTAB
  0
TABLE
  2
BLOCK_RECORD
  5
1
330
0
100
AcDbSymbolTable
 70
     5
  0
BLOCK_RECORD
  5
1F
330
1
100
AcDbSymbolTableRecord
100
AcDbBlockTableRecord
  2
*Model_Space
340
22
  0
BLOCK_RECORD
  5
1B
330
1
100
AcDbSymbolTableRecord
100
AcDbBlockTableRecord
  2
*Paper_Space
340
1E
  0
BLOCK_RECORD
  5
23
330
1
100
AcDbSymbolTableRecord
100
AcDbBlockTableRecord
  2
*Paper_Space0
340
26
  0
BLOCK_RECORD
  5
97
330
1
100
AcDbSymbolTableRecord
100
AcDbBlockTableRecord
  2
SW_CENTERMARKSYMBOL_0
340
0
102
{BLKREFS
331
A2
102
}
  0
BLOCK_RECORD
  5
AC
330
1
100
AcDbSymbolTableRecord
100
AcDbBlockTableRecord
  2
SW_CENTERMARKSYMBOL_1
340
0
102
{BLKREFS
331
B7
102
}
  0
BLOCK_RECORD
  5
BF
330
1
100
AcDbSymbolTableRecord
100
AcDbBlockTableRecord
  2
SW_CENTERMARKSYMBOL_2
340
0
102
{BLKREFS
331
CA
102
}
  0
BLOCK_RECORD
  5
D2
330
1
100
AcDbSymbolTableRecord
100
AcDbBlockTableRecord
  2
SW_CENTERMARKSYMBOL_3
340
0
102
{BLKREFS
331
DD
102
}
  0
ENDTAB
  0
ENDSEC
  0
SECTION
  2
BLOCKS
  0
BLOCK
  5
20
330
1F
100
AcDbEntity
  8
0
100
AcDbBlockBegin
  2
*Model_Space
 70
     0
 10
0.0
 20
0.0
 30
0.0
  3
*Model_Space
  1

  0
ENDBLK
  5
21
330
1F
100
AcDbEntity
  8
0
100
AcDbBlockEnd
  0
BLOCK
  5
1C
330
1B
100
AcDbEntity
 67
     1
  8
0
100
AcDbBlockBegin
  2
*Paper_Space
 70
     0
 10
0.0
 20
0.0
 30
0.0
  3
*Paper_Space
  1

  0
ENDBLK
  5
1D
330
1B
100
AcDbEntity
 67
     1
  8
0
100
AcDbBlockEnd
  0
BLOCK
  5
24
330
23
100
AcDbEntity
  8
0
100
AcDbBlockBegin
  2
*Paper_Space0
 70
     0
 10
0.0
 20
0.0
 30
0.0
  3
*Paper_Space0
  1

  0
ENDBLK
  5
25
330
23
100
AcDbEntity
  8
0
100
AcDbBlockEnd
  0
BLOCK
  5
98
330
97
100
AcDbEntity
  8
0
100
AcDbBlockBegin
  2
SW_CENTERMARKSYMBOL_0
 70
     0
 10
0.0
 20
0.0
 30
0.0
  3
SW_CENTERMARKSYMBOL_0
  1

  0
LINE
  5
9A
330
97
100
AcDbEntity
  8
FORMAT
 62
     0
100
AcDbLine
 10
0.0
 20
0.0
 30
0.0
 11
0.0
 21
2.5
 31
0.0
  0
LINE
  5
9B
330
97
100
AcDbEntity
  8
FORMAT
 62
     0
100
AcDbLine
 10
0.0
 20
0.0
 30
0.0
 11
-2.5
 21
0.0
 31
0.0
  0
LINE
  5
9C
330
97
100
AcDbEntity
  8
FORMAT
 62
     0
100
AcDbLine
 10
0.0
 20
0.0
 30
0.0
 11
0.0
 21
-2.5
 31
0.0
  0
LINE
  5
9D
330
97
100
AcDbEntity
  8
FORMAT
 62
     0
100
AcDbLine
 10
0.0
 20
0.0
 30
0.0
 11
2.5
 21
0.0
 31
0.0
  0
LINE
  5
9E
330
97
100
AcDbEntity
  8
FORMAT
 62
     0
100
AcDbLine
 10
0.0
 20
5.0
 30
0.0
 11
0.0
 21
160.0
 31
0.0
  0
LINE
  5
9F
330
97
100
AcDbEntity
  8
FORMAT
 62
     0
100
AcDbLine
 10
-5.0
 20
0.0
 30
0.0
 11
-160.0
 21
0.0
 31
0.0
  0
LINE
  5
A0
330
97
100
AcDbEntity
  8
FORMAT
 62
     0
100
AcDbLine
 10
0.0
 20
-5.0
 30
0.0
 11
0.0
 21
-160.0
 31
0.0
  0
LINE
  5
A1
330
97
100
AcDbEntity
  8
FORMAT
 62
     0
100
AcDbLine
 10
5.0
 20
0.0
 30
0.0
 11
160.0
 21
0.0
 31
0.0
  0
ENDBLK
  5
99
330
97
100
AcDbEntity
  8
0
100
AcDbBlockEnd
  0
BLOCK
  5
AD
330
AC
100
AcDbEntity
  8
0
100
AcDbBlockBegin
  2
SW_CENTERMARKSYMBOL_1
 70
     0
 10
0.0
 20
0.0
 30
0.0
  3
SW_CENTERMARKSYMBOL_1
  1

  0
LINE
  5
AF
330
AC
100
AcDbEntity
  8
FORMAT
 62
     0
100
AcDbLine
 10
0.0
 20
0.0
 30
0.0
 11
0.0
 21
2.5
 31
0.0
  0
LINE
  5
B0
330
AC
100
AcDbEntity
  8
FORMAT
 62
     0
100
AcDbLine
 10
0.0
 20
0.0
 30
0.0
 11
-2.5
 21
0.0
 31
0.0
  0
LINE
  5
B1
330
AC
100
AcDbEntity
  8
FORMAT
 62
     0
100
AcDbLine
 10
0.0
 20
0.0
 30
0.0
 11
0.0
 21
-2.5
 31
0.0
  0
LINE
  5
B2
330
AC
100
AcDbEntity
  8
FORMAT
 62
     0
100
AcDbLine
 10
0.0
 20
0.0
 30
0.0
 11
2.5
 21
0.0
 31
0.0
  0
LINE
  5
B3
330
AC
100
AcDbEntity
  8
FORMAT
 62
     0
100
AcDbLine
 10
0.0
 20
5.0
 30
0.0
 11
0.0
 21
160.0
 31
0.0
  0
LINE
  5
B4
330
AC
100
AcDbEntity
  8
FORMAT
 62
     0
100
AcDbLine
 10
-5.0
 20
0.0
 30
0.0
 11
-160.0
 21
0.0
 31
0.0
  0
LINE
  5
B5
330
AC
100
AcDbEntity
  8
FORMAT
 62
     0
100
AcDbLine
 10
0.0
 20
-5.0
 30
0.0
 11
0.0
 21
-160.0
 31
0.0
  0
LINE
  5
B6
330
AC
100
AcDbEntity
  8
FORMAT
 62
     0
100
AcDbLine
 10
5.0
 20
0.0
 30
0.0
 11
160.0
 21
0.0
 31
0.0
  0
ENDBLK
  5
AE
330
AC
100
AcDbEntity
  8
0
100
AcDbBlockEnd
  0
BLOCK
  5
C0
330
BF
100
AcDbEntity
  8
0
100
AcDbBlockBegin
  2
SW_CENTERMARKSYMBOL_2
 70
     0
 10
0.0
 20
0.0
 30
0.0
  3
SW_CENTERMARKSYMBOL_2
  1

  0
LINE
  5
C2
330
BF
100
AcDbEntity
  8
FORMAT
 62
     0
100
AcDbLine
 10
0.0
 20
0.0
 30
0.0
 11
0.0
 21
2.5
 31
0.0
  0
LINE
  5
C3
330
BF
100
AcDbEntity
  8
FORMAT
 62
     0
100
AcDbLine
 10
0.0
 20
0.0
 30
0.0
 11
-2.5
 21
0.0
 31
0.0
  0
LINE
  5
C4
330
BF
100
AcDbEntity
  8
FORMAT
 62
     0
100
AcDbLine
 10
0.0
 20
0.0
 30
0.0
 11
0.0
 21
-2.5
 31
0.0
  0
LINE
  5
C5
330
BF
100
AcDbEntity
  8
FORMAT
 62
     0
100
AcDbLine
 10
0.0
 20
0.0
 30
0.0
 11
2.5
 21
0.0
 31
0.0
  0
LINE
  5
C6
330
BF
100
AcDbEntity
  8
FORMAT
 62
     0
100
AcDbLine
 10
0.0
 20
5.0
 30
0.0
 11
0.0
 21
160.0
 31
0.0
  0
LINE
  5
C7
330
BF
100
AcDbEntity
  8
FORMAT
 62
     0
100
AcDbLine
 10
-5.0
 20
0.0
 30
0.0
 11
-160.0
 21
0.0
 31
0.0
  0
LINE
  5
C8
330
BF
100
AcDbEntity
  8
FORMAT
 62
     0
100
AcDbLine
 10
0.0
 20
-5.0
 30
0.0
 11
0.0
 21
-160.0
 31
0.0
  0
LINE
  5
C9
330
BF
100
AcDbEntity
  8
FORMAT
 62
     0
100
AcDbLine
 10
5.0
 20
0.0
 30
0.0
 11
160.0
 21
0.0
 31
0.0
  0
ENDBLK
  5
C1
330
BF
100
AcDbEntity
  8
0
100
AcDbBlockEnd
  0
BLOCK
  5
D3
330
D2
100
AcDbEntity
  8
0
100
AcDbBlockBegin
  2
SW_CENTERMARKSYMBOL_3
 70
     0
 10
0.0
 20
0.0
 30
0.0
  3
SW_CENTERMARKSYMBOL_3
  1

  0
LINE
  5
D5
330
D2
100
AcDbEntity
  8
FORMAT
 62
     0
100
AcDbLine
 10
0.0
 20
0.0
 30
0.0
 11
0.0
 21
2.5
 31
0.0
  0
LINE
  5
D6
330
D2
100
AcDbEntity
  8
FORMAT
 62
     0
100
AcDbLine
 10
0.0
 20
0.0
 30
0.0
 11
-2.5
 21
0.0
 31
0.0
  0
LINE
  5
D7
330
D2
100
AcDbEntity
  8
FORMAT
 62
     0
100
AcDbLine
 10
0.0
 20
0.0
 30
0.0
 11
0.0
 21
-2.5
 31
0.0
  0
LINE
  5
D8
330
D2
100
AcDbEntity
  8
FORMAT
 62
     0
100
AcDbLine
 10
0.0
 20
0.0
 30
0.0
 11
2.5
 21
0.0
 31
0.0
  0
LINE
  5
D9
330
D2
100
AcDbEntity
  8
FORMAT
 62
     0
100
AcDbLine
 10
0.0
 20
5.0
 30
0.0
 11
0.0
 21
160.0
 31
0.0
  0
LINE
  5
DA
330
D2
100
AcDbEntity
  8
FORMAT
 62
     0
100
AcDbLine
 10
-5.0
 20
0.0
 30
0.0
 11
-160.0
 21
0.0
 31
0.0
  0
LINE
  5
DB
330
D2
100
AcDbEntity
  8
FORMAT
 62
     0
100
AcDbLine
 10
0.0
 20
-5.0
 30
0.0
 11
0.0
 21
-160.0
 31
0.0
  0
LINE
  5
DC
330
D2
100
AcDbEntity
  8
FORMAT
 62
     0
100
AcDbLine
 10
5.0
 20
0.0
 30
0.0
 11
160.0
 21
0.0
 31
0.0
  0
ENDBLK
  5
D4
330
D2
100
AcDbEntity
  8
0
100
AcDbBlockEnd
  0
ENDSEC
  0
SECTION
  2
ENTITIES
  0
LINE
  5
83
330
1F
100
AcDbEntity
  8
0
  6
Continuous
 62
     7
370
    25
100
AcDbLine
 10
-79.5031795253
 20
70.0476625259
 30
0.0
 11
-79.5031795253
 21
-142.4523374741
 31
0.0
  0
LINE
  5
84
330
1F
100
AcDbEntity
  8
0
  6
Continuous
 62
     7
370
    25
100
AcDbLine
 10
235.4968204747
 20
-142.4523374741
 30
0.0
 11
235.4968204747
 21
70.0476625259
 31
0.0
  0
ARC
  5
85
330
1F
100
AcDbEntity
  8
0
  6
Continuous
 62
     7
370
    25
100
AcDbCircle
 10
235.4968204747
 20
70.0476625259
 30
0.0
 40
315.0
100
AcDbArc
 50
90.0
 51
180.0
  0
LINE
  5
86
330
1F
100
AcDbEntity
  8
0
  6
Continuous
 62
     7
370
    25
100
AcDbLine
 10
447.9968204747
 20
385.0476625259
 30
0.0
 11
235.4968204747
 21
385.0476625259
 31
0.0
  0
LINE
  5
87
330
1F
100
AcDbEntity
  8
0
  6
Continuous
 62
     7
370
    25
100
AcDbLine
 10
235.4968204747
 20
70.0476625259
 30
0.0
 11
447.9968204747
 21
70.0476625259
 31
0.0
  0
LINE
  5
88
330
1F
100
AcDbEntity
  8
0
  6
Continuous
 62
     7
370
    25
100
AcDbLine
 10
77.9968204747
 20
-142.4523374741
 30
0.0
 11
235.4968204747
 21
-142.4523374741
 31
0.0
  0
LINE
  5
89
330
1F
100
AcDbEntity
  8
0
  6
Continuous
 62
     7
370
    25
100
AcDbLine
 10
-79.5031795253
 20
-142.4523374741
 30
0.0
 11
77.9968204747
 21
-142.4523374741
 31
0.0
  0
LINE
  5
8A
330
1F
100
AcDbEntity
  8
0
  6
Continuous
 62
     7
370
    25
100
AcDbLine
 10
447.9968204747
 20
227.5476625259
 30
0.0
 11
447.9968204747
 21
70.0476625259
 31
0.0
  0
LINE
  5
8B
330
1F
100
AcDbEntity
  8
0
  6
Continuous
 62
     7
370
    25
100
AcDbLine
 10
447.9968204747
 20
385.0476625259
 30
0.0
 11
447.9968204747
 21
227.5476625259
 31
0.0
  0
LINE
  5
8C
330
1F
100
AcDbEntity
  8
0
  6
Continuous
 62
     1
370
    25
100
AcDbLine
 10
-79.5031795253
 20
70.0476625259
 30
0.0
 11
235.4968204747
 21
70.0476625259
 31
0.0
  0
LINE
  5
8D
330
1F
100
AcDbEntity
  8
0
  6
Continuous
 62
     1
370
    25
100
AcDbLine
 10
235.4968204747
 20
385.0476625259
 30
0.0
 11
235.4968204747
 21
70.0476625259
 31
0.0
  0
LINE
  5
8E
330
1F
100
AcDbEntity
  8
0
  6
Continuous
 62
     7
370
    25
100
AcDbLine
 10
-590.9522741563
 20
227.5476625259
 30
0.0
 11
-590.9522741563
 21
70.0476625259
 31
0.0
  0
LINE
  5
8F
330
1F
100
AcDbEntity
  8
0
  6
Continuous
 62
     7
370
    25
100
AcDbLine
 10
-275.9522741563
 20
70.0476625259
 30
0.0
 11
-275.9522741563
 21
227.5476625259
 31
0.0
  0
LINE
  5
90
330
1F
100
AcDbEntity
  8
0
  6
Continuous
 62
     7
370
    25
100
AcDbLine
 10
-590.9522741563
 20
70.0476625259
 30
0.0
 11
-590.9522741563
 21
-142.4523374741
 31
0.0
  0
LINE
  5
91
330
1F
100
AcDbEntity
  8
0
  6
Continuous
 62
     7
370
    25
100
AcDbLine
 10
-275.9522741563
 20
-142.4523374741
 30
0.0
 11
-275.9522741563
 21
70.0476625259
 31
0.0
  0
CIRCLE
  5
92
330
1F
100
AcDbEntity
  8
0
  6
Continuous
 62
     7
370
    25
100
AcDbCircle
 10
-433.4522741563
 20
227.5476625259
 30
0.0
 40
157.5000000000001
  0
CIRCLE
  5
93
330
1F
100
AcDbEntity
  8
0
  6
Continuous
 62
     7
370
    25
100
AcDbCircle
 10
-433.4522741563
 20
227.5476625259
 30
0.0
 40
138.8000000000001
  0
LINE
  5
94
330
1F
100
AcDbEntity
  8
0
  6
Continuous
 62
     7
370
    25
100
AcDbLine
 10
-590.9522741563
 20
-142.4523374741
 30
0.0
 11
-275.9522741563
 21
-142.4523374741
 31
0.0
  0
LINE
  5
95
330
1F
100
AcDbEntity
  8
0
  6
Continuous
 62
     1
370
    25
100
AcDbLine
 10
-433.4522741563
 20
70.0476625259
 30
0.0
 11
-275.9522741563
 21
70.0476625259
 31
0.0
  0
LINE
  5
96
330
1F
100
AcDbEntity
  8
0
  6
Continuous
 62
     1
370
    25
100
AcDbLine
 10
-590.9522741563
 20
70.0476625259
 30
0.0
 11
-433.4522741563
 21
70.0476625259
 31
0.0
  0
INSERT
  5
A2
330
1F
100
AcDbEntity
  8
FORMAT
 62
     7
100
AcDbBlockReference
  2
SW_CENTERMARKSYMBOL_0
 10
-433.4522741563
 20
227.5476625259
 30
0.0
  0
LINE
  5
A3
330
1F
100
AcDbEntity
  8
0
  6
Continuous
 62
     7
370
    25
100
AcDbLine
 10
447.9968204747
 20
875.0662162496
 30
0.0
 11
235.4968204747
 21
875.0662162496
 31
0.0
  0
LINE
  5
A4
330
1F
100
AcDbEntity
  8
0
  6
Continuous
 62
     7
370
    25
100
AcDbLine
 10
235.4968204747
 20
560.0662162496
 30
0.0
 11
447.9968204747
 21
560.0662162496
 31
0.0
  0
LINE
  5
A5
330
1F
100
AcDbEntity
  8
0
  6
Continuous
 62
     7
370
    25
100
AcDbLine
 10
235.4968204747
 20
875.0662162496
 30
0.0
 11
77.9968204747
 21
875.0662162496
 31
0.0
  0
LINE
  5
A6
330
1F
100
AcDbEntity
  8
0
  6
Continuous
 62
     7
370
    25
100
AcDbLine
 10
77.9968204747
 20
560.0662162496
 30
0.0
 11
235.4968204747
 21
560.0662162496
 31
0.0
  0
CIRCLE
  5
A7
330
1F
100
AcDbEntity
  8
0
  6
Continuous
 62
     7
370
    25
100
AcDbCircle
 10
77.9968204747
 20
717.5662162496
 30
0.0
 40
138.8000000000001
  0
CIRCLE
  5
A8
330
1F
100
AcDbEntity
  8
0
  6
Continuous
 62
     7
370
    25
100
AcDbCircle
 10
77.9968204747
 20
717.5662162496
 30
0.0
 40
157.5
  0
LINE
  5
A9
330
1F
100
AcDbEntity
  8
0
  6
Continuous
 62
     7
370
    25
100
AcDbLine
 10
447.9968204747
 20
875.0662162496
 30
0.0
 11
447.9968204747
 21
560.0662162496
 31
0.0
  0
LINE
  5
AA
330
1F
100
AcDbEntity
  8
0
  6
Continuous
 62
     1
370
    25
100
AcDbLine
 10
235.4968204747
 20
717.5662162496
 30
0.0
 11
235.4968204747
 21
560.0662162496
 31
0.0
  0
LINE
  5
AB
330
1F
100
AcDbEntity
  8
0
  6
Continuous
 62
     1
370
    25
100
AcDbLine
 10
235.4968204747
 20
875.0662162496
 30
0.0
 11
235.4968204747
 21
717.5662162496
 31
0.0
  0
INSERT
  5
B7
330
1F
100
AcDbEntity
  8
FORMAT
 62
     7
100
AcDbBlockReference
  2
SW_CENTERMARKSYMBOL_1
 10
77.9968204747
 20
717.5662162496
 30
0.0
  0
LINE
  5
B8
330
1F
100
AcDbEntity
  8
0
  6
Continuous
 62
     7
370
    25
100
AcDbLine
 10
584.2672067524
 20
70.0476625259
 30
0.0
 11
584.2672067524
 21
-142.4523374741
 31
0.0
  0
LINE
  5
B9
330
1F
100
AcDbEntity
  8
0
  6
Continuous
 62
     7
370
    25
100
AcDbLine
 10
899.2672067524
 20
-142.4523374741
 30
0.0
 11
899.2672067524
 21
70.0476625259
 31
0.0
  0
LINE
  5
BA
330
1F
100
AcDbEntity
  8
0
  6
Continuous
 62
     7
370
    25
100
AcDbLine
 10
899.2672067524
 20
70.0476625259
 30
0.0
 11
899.2672067524
 21
227.5476625259
 31
0.0
  0
LINE
  5
BB
330
1F
100
AcDbEntity
  8
0
  6
Continuous
 62
     7
370
    25
100
AcDbLine
 10
584.2672067524
 20
227.5476625259
 30
0.0
 11
584.2672067524
 21
70.0476625259
 31
0.0
  0
LINE
  5
BC
330
1F
100
AcDbEntity
  8
0
  6
Continuous
 62
     7
370
    25
100
AcDbLine
 10
584.2672067524
 20
-142.4523374741
 30
0.0
 11
899.2672067524
 21
-142.4523374741
 31
0.0
  0
ARC
  5
BD
330
1F
100
AcDbEntity
  8
0
  6
Continuous
 62
     7
370
    25
100
AcDbCircle
 10
741.7672067524
 20
227.5476625259
 30
0.0
 40
157.5000000000001
100
AcDbArc
 50
0.0
 51
180.0
  0
LINE
  5
BE
330
1F
100
AcDbEntity
  8
0
  6
Continuous
 62
     1
370
    25
100
AcDbLine
 10
584.2672067524
 20
70.0476625259
 30
0.0
 11
899.2672067524
 21
70.0476625259
 31
0.0
  0
INSERT
  5
CA
330
1F
100
AcDbEntity
  8
FORMAT
 62
     7
100
AcDbBlockReference
  2
SW_CENTERMARKSYMBOL_2
 10
741.7672067524
 20
227.5476625259
 30
0.0
  0
LINE
  5
CB
330
1F
100
AcDbEntity
  8
0
  6
Continuous
 62
     7
370
    25
100
AcDbLine
 10
77.9968204747
 20
-684.8093997854
 30
0.0
 11
235.4968204747
 21
-684.8093997854
 31
0.0
  0
LINE
  5
CC
330
1F
100
AcDbEntity
  8
0
  6
Continuous
 62
     7
370
    25
100
AcDbLine
 10
235.4968204747
 20
-369.8093997854
 30
0.0
 11
77.9968204747
 21
-369.8093997854
 31
0.0
  0
LINE
  5
CD
330
1F
100
AcDbEntity
  8
0
  6
Continuous
 62
     7
370
    25
100
AcDbLine
 10
447.9968204747
 20
-369.8093997854
 30
0.0
 11
235.4968204747
 21
-369.8093997854
 31
0.0
  0
LINE
  5
CE
330
1F
100
AcDbEntity
  8
0
  6
Continuous
 62
     7
370
    25
100
AcDbLine
 10
235.4968204747
 20
-684.8093997854
 30
0.0
 11
447.9968204747
 21
-684.8093997854
 31
0.0
  0
ARC
  5
CF
330
1F
100
AcDbEntity
  8
0
  6
Continuous
 62
     7
370
    25
100
AcDbCircle
 10
77.9968204747
 20
-527.3093997854
 30
0.0
 40
157.5000000000001
100
AcDbArc
 50
90.0
 51
270.0
  0
LINE
  5
D0
330
1F
100
AcDbEntity
  8
0
  6
Continuous
 62
     7
370
    25
100
AcDbLine
 10
447.9968204747
 20
-369.8093997854
 30
0.0
 11
447.9968204747
 21
-684.8093997854
 31
0.0
  0
LINE
  5
D1
330
1F
100
AcDbEntity
  8
0
  6
Continuous
 62
     1
370
    25
100
AcDbLine
 10
235.4968204747
 20
-369.8093997854
 30
0.0
 11
235.4968204747
 21
-684.8093997854
 31
0.0
  0
INSERT
  5
DD
330
1F
100
AcDbEntity
  8
FORMAT
 62
     7
100
AcDbBlockReference
  2
SW_CENTERMARKSYMBOL_3
 10
77.9968204747
 20
-527.3093997854
 30
0.0
  0
LINE
  5
DE
330
1F
100
AcDbEntity
  8
0
  6
Continuous
 62
     7
370
    25
100
AcDbLine
 10
929.8358808659
 20
-229.0659858716
 30
0.0
 11
779.5756898638
 21
-315.8093477527
 31
0.0
  0
LINE
  5
DF
330
1F
100
AcDbEntity
  8
0
  6
Continuous
 62
     7
370
    25
100
AcDbLine
 10
937.062890254
 20
-588.6147394027
 30
0.0
 11
1087.3230812561
 21
-501.8713775215
 31
0.0
  0
LINE
  5
E0
330
1F
100
AcDbEntity
  8
0
  6
Continuous
 62
     7
370
    25
100
AcDbLine
 10
589.449972022
 20
-645.1093602557
 30
0.0
 11
589.449972022
 21
-818.6242827815
 31
0.0
  0
LINE
  5
E1
330
1F
100
AcDbEntity
  8
0
  6
Continuous
 62
     7
370
    25
100
AcDbLine
 10
904.449972022
 20
-818.6242827815
 30
0.0
 11
904.449972022
 21
-645.1093602557
 31
0.0
  0
SPLINE
  5
E2
330
1F
100
AcDbEntity
  8
0
  6
Continuous
 62
     7
370
    25
100
AcDbSpline
210
0.0
220
0.0
230
1.0
 70
     8
 71
     3
 72
    48
 73
    44
 74
     0
 42
0.00000001
 43
0.00000001
 40
0.0
 40
0.0
 40
0.0
 40
0.0
 40
0.0162152305687465
 40
0.0411680639093168
 40
0.0661671824024404
 40
0.0912670147100965
 40
0.11643957841434
 40
0.1416584927918075
 40
0.1668960650624715
 40
0.1921280463015215
 40
0.2173379743568687
 40
0.242513253304294
 40
0.2676451042928404
 40
0.2927283163445141
 40
0.3177608833546578
 40
0.3427435860687717
 40
0.3676795636502551
 40
0.3925739046569955
 40
0.4174332743608474
 40
0.442265585361569
 40
0.4670797113792433
 40
0.4918852394778229
 40
0.5166922531435082
 40
0.5415105419247525
 40
0.5663477256012448
 40
0.5912142994770945
 40
0.6161205629326387
 40
0.6410764141475396
 40
0.6660911173408509
 40
0.6911730317694886
 40
0.716329293259112
 40
0.7415654415705579
 40
0.7668849914518016
 40
0.7922889526171819
 40
0.8177753148927642
 40
0.8433385296975969
 40
0.8689690372147791
 40
0.894652907622583
 40
0.9203716798385095
 40
0.9460942904653362
 40
0.9717925164859558
 40
0.9956623443617694
 40
1.0
 40
1.0
 40
1.0
 40
1.0
 10
779.5756898637818
 20
-315.8093477527408
 30
0.0
 10
777.7855875404067
 20
-316.857232144888
 30
0.0
 10
773.2407834107038
 20
-319.5176550998744
 30
0.0
 10
766.0494693089393
 20
-324.0313447182644
 30
0.0
 10
758.0171210324729
 20
-329.3961196578038
 30
0.0
 10
750.0984310757668
 20
-335.0356970946081
 30
0.0
 10
742.2949500010691
 20
-340.939766839818
 30
0.0
 10
734.6196811472756
 20
-347.0978841469505
 30
0.0
 10
727.0840023016791
 20
-353.4970339481724
 30
0.0
 10
719.6981707556384
 20
-360.1245716053706
 30
0.0
 10
712.4706512989266
 20
-366.9682522200311
 30
0.0
 10
705.4083025934664
 20
-374.0166690463346
 30
0.0
 10
698.5168735208847
 20
-381.259013462778
 30
0.0
 10
691.8011599644171
 20
-388.6851749293339
 30
0.0
 10
685.2651766679923
 20
-396.2857704295119
 30
0.0
 10
678.9123335421214
 20
-404.0521372565992
 30
0.0
 10
672.7456017787266
 20
-411.9762967429852
 30
0.0
 10
666.7676632521968
 20
-420.0509012603704
 30
0.0
 10
660.9810399989528
 20
-428.2691725378057
 30
0.0
 10
655.3882037054768
 20
-436.6248372068632
 30
0.0
 10
649.9916669058928
 20
-445.112063028408
 30
0.0
 10
644.7940585617231
 20
-453.7253973729815
 30
0.0
 10
639.7982269684552
 20
-462.4596381729938
 30
0.0
 10
635.0074310516153
 20
-471.3094991874307
 30
0.0
 10
630.4251599861785
 20
-480.2698835927447
 30
0.0
 10
626.0551359648798
 20
-489.3359086573274
 30
0.0
 10
621.9012401633302
 20
-498.5031381149913
 30
0.0
 10
617.967733872988
 20
-507.7671642313974
 30
0.0
 10
614.2592907203899
 20
-517.1235197061932
 30
0.0
 10
610.7810243543397
 20
-526.5675730254327
 30
0.0
 10
607.5385094121962
 20
-536.0944036884647
 30
0.0
 10
604.5377921508592
 20
-545.6986547088152
 30
0.0
 10
601.785385900088
 20
-555.3743615054923
 30
0.0
 10
599.2882443343746
 20
-565.114759288575
 30
0.0
 10
597.0537073454775
 20
-574.9120750280363
 30
0.0
 10
595.0894032194458
 20
-584.7573170674042
 30
0.0
 10
593.4031321203954
 20
-594.6400778188429
 30
0.0
 10
592.0026078809979
 20
-604.5483888054357
 30
0.0
 10
590.8956234514253
 20
-614.4675553552607
 30
0.0
 10
590.088499539008
 20
-624.3811711000308
 30
0.0
 10
589.6011111165977
 20
-634.0433507965568
 30
0.0
 10
589.4571869433656
 20
-640.9478513348453
 30
0.0
 10
589.4509336354668
 20
-644.554709296967
 30
0.0
 10
589.4499720219908
 20
-645.1093602557421
 30
0.0
  0
SPLINE
  5
E3
330
1F
100
AcDbEntity
  8
0
  6
Continuous
 62
     7
370
    25
100
AcDbSpline
210
0.0
220
0.0
230
1.0
 70
     8
 71
     3
 72
    41
 73
    37
 74
     0
 42
0.00000001
 43
0.00000001
 40
0.0
 40
0.0
 40
0.0
 40
0.0
 40
0.0223214702656245
 40
0.0541268155776786
 40
0.0851323998463486
 40
0.1155074833095771
 40
0.145408735192675
 40
0.1749782549693616
 40
0.2043418744856501
 40
0.2336077686061695
 40
0.2628654428412632
 40
0.2921848349347471
 40
0.3215989627892052
 40
0.35114638292926
 40
0.3808478106030859
 40
0.4107079008271211
 40
0.4407173925696563
 40
0.4708556823838385
 40
0.5010937418587214
 40
0.5313972915867636
 40
0.5617234404984653
 40
0.5920322678740754
 40
0.6222958268283585
 40
0.6524957579516577
 40
0.6826264527775429
 40
0.7126979117621336
 40
0.7427381673256898
 40
0.7727951515962913
 40
0.802933416425868
 40
0.8332190767115332
 40
0.8637559402085507
 40
0.8946681078927985
 40
0.9260983900399934
 40
0.9582063697239275
 40
0.991166100818527
 40
0.9999999999999999
 40
0.9999999999999999
 40
0.9999999999999999
 40
0.9999999999999999
 10
904.4496032811986
 20
-645.2304328331602
 30
0.0
 10
904.4494900653226
 20
-645.2304240041065
 30
0.0
 10
904.4492155307706
 20
-645.2304025947386
 30
0.0
 10
904.4709323276729
 20
-644.8885260332961
 30
0.0
 10
904.5355602915129
 20
-644.2574137526129
 30
0.0
 10
904.6589762133698
 20
-643.3393701507299
 30
0.0
 10
904.8556964313872
 20
-642.1603597910317
 30
0.0
 10
905.1394189415928
 20
-640.7303359567292
 30
0.0
 10
905.5221712980943
 20
-639.0647972782033
 30
0.0
 10
906.0144142252279
 20
-637.1795796007123
 30
0.0
 10
906.624802873415
 20
-635.0926413167468
 30
0.0
 10
907.3598200435666
 20
-632.8243896332559
 30
0.0
 10
908.2236060381357
 20
-630.3974407822288
 30
0.0
 10
909.2177535368616
 20
-627.8364791820825
 30
0.0
 10
910.3413914440824
 20
-625.1675221707367
 30
0.0
 10
911.5907974330935
 20
-622.4183459519026
 30
0.0
 10
912.9592790801064
 20
-619.618149164327
 30
0.0
 10
914.437133615414
 20
-616.7971026933749
 30
0.0
 10
916.0116975989313
 20
-613.9858082656418
 30
0.0
 10
917.6673685389709
 20
-611.2148988197179
 30
0.0
 10
919.3858421803818
 20
-608.514332042882
 30
0.0
 10
921.1465744384071
 20
-605.9124968299963
 30
0.0
 10
922.9273718872093
 20
-603.4353793532134
 30
0.0
 10
924.7048616297806
 20
-601.1060869033129
 30
0.0
 10
926.4548530052228
 20
-598.9446073842107
 30
0.0
 10
928.1527946303771
 20
-596.967516651903
 30
0.0
 10
929.7741925979324
 20
-595.1878138647156
 30
0.0
 10
931.2948604314562
 20
-593.6149809897386
 30
0.0
 10
932.6909340111347
 20
-592.2552932026116
 30
0.0
 10
933.9392670411453
 20
-591.1116034275408
 30
0.0
 10
935.0183781071869
 20
-590.183040149552
 30
0.0
 10
935.9058248958044
 20
-589.4669083673665
 30
0.0
 10
936.588236756918
 20
-588.9528992094872
 30
0.0
 10
937.0208856506874
 20
-588.6478984374314
 30
0.0
 10
937.2160613455259
 20
-588.5238247133179
 30
0.0
 10
937.1781933264347
 20
-588.5467238446527
 30
0.0
 10
937.1701891817685
 20
-588.5515640228383
 30
0.0
  0
LWPOLYLINE
  5
E4
330
1F
100
AcDbEntity
  8
0
  6
Continuous
 62
     7
370
    25
100
AcDbPolyline
 90
      134
 70
   128
 43
0.0
 10
897.2101630241
 20
-301.1765428905
 10
897.3344172724
 20
-307.3215788226
 10
897.7069027573
 20
-313.596363678
 10
898.3267883181
 20
-319.9868959583
 10
899.1926907478
 20
-326.4789158869
 10
900.3026778793
 20
-333.0579372289
 10
901.6542728975
 20
-339.7092796152
 10
903.2444598653
 20
-346.4181013
 10
905.0696904538
 20
-353.1694322789
 10
907.1258918598
 20
-359.9482076925
 10
909.4084758939
 20
-366.7393014423
 10
911.9123492188
 20
-373.5275599426
 10
914.6319247138
 20
-380.2978359343
 10
917.5611339427
 20
-387.0350222844
 10
920.6934406943
 20
-393.7240856957
 10
924.0218555673
 20
-400.3501002521
 10
927.5389515668
 20
-406.8982807243
 10
931.2368806763
 20
-413.3540155612
 10
935.10739137
 20
-419.702899494
 10
939.1418470251
 20
-425.93076568
 10
943.3312451933
 20
-432.0237173146
 10
947.6662376894
 20
-437.9681586403
 10
952.1371514499
 20
-443.7508252839
 10
956.734010118
 20
-449.358813855
 10
961.4465563045
 20
-454.7796107384
 10
966.2642744762
 20
-460.0011200164
 10
971.17641442
 20
-465.0116904602
 10
976.1720152309
 20
-469.8001415279
 10
981.2399297702
 20
-474.3557883127
 10
986.3688495388
 20
-478.6684653853
 10
991.5473299111
 20
-482.7285494768
 10
996.7638156727
 20
-486.526980952
 10
1002.0066668039
 20
-490.055284025
 10
1007.2641844539
 20
-493.305585672
 10
1012.5246370449
 20
-496.270633199
 10
1017.7762864502
 20
-498.9438104258
 10
1023.0074141866
 20
-501.3191524485
 10
1028.2063475625
 20
-503.3913589503
 10
1033.3614857247
 20
-505.1558060282
 10
1038.4613255441
 20
-506.6085565109
 10
1043.494487284
 20
-507.746368744
 10
1048.4497399925
 20
-508.5667038235
 10
1053.3160265631
 20
-509.067731261
 10
1058.0824884077
 20
-509.2483330684
 10
1062.7384896861
 20
-509.1081062525
 10
1067.2736410389
 20
-508.6473637141
 10
1071.67782277
 20
-507.86713355
 10
1075.9412074278
 20
-506.7691567587
 10
1080.0542817342
 20
-505.3558833559
 10
1084.0078678119
 20
-503.6304669071
 10
1087.7931436646
 20
-501.596757491
 10
1091.4016628617
 20
-499.2592931087
 10
1094.8253733858
 20
-496.6232895572
 10
1098.0566356
 20
-493.694628791
 10
1101.0882392949
 20
-490.4798457976
 10
1103.9134197771
 20
-486.9861140149
 10
1106.5258729642
 20
-483.2212293246
 10
1108.9197694518
 20
-479.1935926566
 10
1111.0897675206
 20
-474.9121912432
 10
1113.0310250564
 20
-470.3865785651
 10
1114.7392103547
 20
-465.6268530338
 10
1116.210511786
 20
-460.6436354581
 10
1117.4416463016
 20
-455.448045345
 10
1118.4298667589
 20
-450.0516760876
 10
1119.1729680518
 20
-444.4665690959
 10
1119.6692920306
 20
-438.7051869273
 10
1119.9177312024
 20
-432.7803854785
 10
1119.9177312024
 20
-426.7053852981
 10
1119.6692920306
 20
-420.493742087
 10
1119.1729680518
 20
-414.1593164501
 10
1118.4298667589
 20
-407.716242968
 10
1117.4416463016
 20
-401.1788986569
 10
1116.210511786
 20
-394.5618708882
 10
1114.7392103547
 20
-387.8799248384
 10
1113.0310250564
 20
-381.1479705418
 10
1111.0897675206
 20
-374.3810296208
 10
1108.9197694518
 20
-367.5942017667
 10
1106.5258729642
 20
-360.8026310461
 10
1103.9134197771
 20
-354.0214721091
 10
1101.0882392949
 20
-347.2658563728
 10
1098.0566356
 20
-340.5508582576
 10
1094.8253733858
 20
-333.8914615498
 10
1091.4016628617
 20
-327.3025259676
 10
1087.7931436646
 20
-320.7987540027
 10
1084.0078678119
 20
-314.3946581135
 10
1080.0542817342
 20
-308.1045283419
 10
1075.9412074278
 20
-301.9424004272
 10
1071.67782277
 20
-295.9220244862
 10
1067.2736410389
 20
-290.0568343318
 10
1062.7384896861
 20
-284.3599174966
 10
1058.0824884077
 20
-278.8439860298
 10
1053.3160265631
 20
-273.5213481312
 10
1048.4497399925
 20
-268.4038806872
 10
1043.494487284
 20
-263.5030027689
 10
1038.4613255441
 20
-258.8296501512
 10
1033.3614857247
 20
-254.3942509112
 10
1028.2063475625
 20
-250.2067021589
 10
1023.0074141866
 20
-246.2763479529
 10
1017.7762864502
 20
-242.6119584505
 10
1012.5246370449
 20
-239.2217103375
 10
1007.2641844539
 20
-236.113168583
 10
1002.0066668039
 20
-233.2932695592
 10
996.7638156727
 20
-230.7683055635
 10
991.5473299111
 20
-228.5439107779
 10
986.3688495388
 20
-226.6250486969
 10
981.2399297702
 20
-225.0160010521
 10
976.1720152309
 20
-223.7203582581
 10
971.17641442
 20
-222.7410114005
 10
966.2642744762
 20
-222.0801457851
 10
961.4465563045
 20
-221.7392360615
 10
956.734010118
 20
-221.7190429326
 10
952.1371514499
 20
-222.0196114572
 10
947.6662376894
 20
-222.6402709494
 10
943.3312451933
 20
-223.5796364751
 10
939.1418470251
 20
-224.8356119425
 10
935.10739137
 20
-226.4053947794
 10
931.2368806763
 20
-228.2854821862
 10
927.5389515668
 20
-230.4716789529
 10
924.0218555673
 20
-232.9591068197
 10
920.6934406943
 20
-235.7422153623
 10
917.5611339427
 20
-238.8147943772
 10
914.6319247138
 20
-242.1699877394
 10
911.9123492188
 20
-245.8003087003
 10
909.4084758939
 20
-249.6976565945
 10
907.1258918598
 20
-253.8533349148
 10
905.0696904538
 20
-258.2580707179
 10
903.2444598653
 20
-262.902035316
 10
901.6542728975
 20
-267.7748662079
 10
900.3026778793
 20
-272.8656902028
 10
899.1926907478
 20
-278.1631476816
 10
898.3267883181
 20
-283.6554179452
 10
897.7069027573
 20
-289.3302455911
 10
897.3344172724
 20
-295.1749678598
 10
897.2101630241
 20
-301.1765428905
  0
LWPOLYLINE
  5
E5
330
1F
100
AcDbEntity
  8
0
  6
Continuous
 62
     7
370
    25
100
AcDbPolyline
 90
      126
 70
   128
 43
0.0
 10
910.4330598323
 20
-308.809958736
 10
910.5570230213
 20
-303.1870379151
 10
910.9285994464
 20
-297.7214459317
 10
911.5468504735
 20
-292.4269893455
 10
912.4102143466
 20
-287.3170424133
 10
913.5165101339
 20
-282.4045133045
 10
914.862943236
 20
-277.7018114941
 10
916.4461124461
 20
-273.2208164149
 10
918.2620185414
 20
-268.9728474494
 10
920.3060743855
 20
-264.9686353359
 10
922.5731165159
 20
-261.2182950617
 10
925.0574181875
 20
-257.7313003118
 10
927.7527038386
 20
-254.5164595376
 10
930.6521649438
 20
-251.5818937059
 10
933.7484772126
 20
-248.9350157847
 10
937.0338190916
 20
-246.5825120173
 10
940.499891522
 20
-244.5303250324
 10
944.1379389041
 20
-242.7836388324
 10
947.9387712145
 20
-241.3468656982
 10
951.8927872207
 20
-240.2236350436
 10
955.9899987354
 20
-239.4167842465
 10
960.2200558465
 20
-238.9283514823
 10
964.5722730628
 20
-238.7595705743
 10
969.0356563057
 20
-238.9108678778
 10
973.5989306819
 20
-239.3818612027
 10
978.2505689643
 20
-240.171360779
 10
982.9788207108
 20
-241.2773722623
 10
987.7717419471
 20
-242.6971017715
 10
992.6172253384
 20
-244.4269629467
 10
997.5030307729
 20
-246.4625860084
 10
1002.4168162821
 20
-248.7988287961
 10
1007.3461692174
 20
-251.4297897578
 10
1012.2786376055
 20
-254.3488228577
 10
1017.2017616031
 20
-257.5485543649
 10
1022.1031049718
 20
-261.0209014799
 10
1026.9702864927
 20
-264.7570927526
 10
1031.7910112431
 20
-268.7476902395
 10
1036.5531016537
 20
-272.982613345
 10
1041.2445282709
 20
-277.4511642858
 10
1045.8534401439
 20
-282.1420551145
 10
1050.3681947614
 20
-287.0434362337
 10
1054.7773874613
 20
-292.1429263293
 10
1059.0698802402
 20
-297.4276436468
 10
1063.2348298889
 20
-302.8842385315
 10
1067.2617153829
 20
-308.4989271512
 10
1071.1403644602
 20
-314.2575263152
 10
1074.8609793164
 20
-320.1454893022
 10
1078.4141613556
 20
-326.1479426067
 10
1081.7909349316
 20
-332.2497235107
 10
1084.9827700213
 20
-338.435418386
 10
1087.9816037721
 20
-344.6894016307
 10
1090.7798608698
 20
-350.9958751402
 10
1093.3704726742
 20
-357.3389082151
 10
1095.7468950748
 20
-363.7024778035
 10
1097.9031250226
 20
-370.0705089761
 10
1099.8337156935
 20
-376.4269155336
 10
1101.533790248
 20
-382.7556406414
 10
1102.9990541502
 20
-389.0406973907
 10
1104.2258060162
 20
-395.2662091825
 10
1105.2109469645
 20
-401.4164498338
 10
1105.9519884434
 20
-407.475883303
 10
1106.4470585179
 20
-413.4292029352
 10
1106.6949065981
 20
-419.2613701283
 10
1106.6949065981
 20
-424.9576523219
 10
1106.4470585179
 20
-430.5036602128
 10
1105.9519884434
 20
-435.8853841037
 10
1105.2109469645
 20
-441.089229293
 10
1104.2258060162
 20
-446.1020504161
 10
1102.9990541502
 20
-450.9111846519
 10
1101.533790248
 20
-455.5044837097
 10
1099.8337156935
 20
-459.8703445177
 10
1097.9031250226
 20
-463.9977385325
 10
1095.7468950748
 20
-467.8762395985
 10
1093.3704726742
 20
-471.4960502856
 10
1090.7798608698
 20
-474.8480266376
 10
1087.9816037721
 20
-477.9237012716
 10
1084.9827700213
 20
-480.7153047664
 10
1081.7909349316
 20
-483.2157852892
 10
1078.4141613556
 20
-485.4188264094
 10
1074.8609793164
 20
-487.3188630538
 10
1071.1403644602
 20
-488.911095565
 10
1067.2617153829
 20
-490.1915018254
 10
1063.2348298889
 20
-491.1568474177
 10
1059.0698802402
 20
-491.8046937952
 10
1054.7773874613
 20
-492.1334044417
 10
1050.3681947614
 20
-492.1421490055
 10
1045.8534401439
 20
-491.8309053972
 10
1041.2445282709
 20
-491.2004598452
 10
1036.5531016537
 20
-490.2524049095
 10
1031.7910112431
 20
-488.9891354592
 10
1026.9702864927
 20
-487.4138426227
 10
1022.1031049718
 20
-485.5305057262
 10
1017.2017616031
 20
-483.3438822424
 10
1012.2786376055
 20
-480.8594957718
 10
1007.3461692174
 20
-478.0836220904
 10
1002.4168162821
 20
-475.0232732959
 10
997.5030307729
 20
-471.686180095
 10
992.6172253384
 20
-468.0807722747
 10
987.7717419471
 20
-464.2161574081
 10
982.9788207108
 20
-460.1020978478
 10
978.2505689643
 20
-455.7489860653
 10
973.5989306819
 20
-451.1678183987
 10
969.0356563057
 20
-446.3701672751
 10
964.5722730628
 20
-441.3681519776
 10
960.2200558465
 20
-436.1744080311
 10
955.9899987354
 20
-430.8020552835
 10
951.8927872207
 20
-425.264664764
 10
947.9387712145
 20
-419.5762244017
 10
944.1379389041
 20
-413.7511036907
 10
940.499891522
 20
-407.8040173913
 10
937.0338190916
 20
-401.7499883599
 10
933.7484772126
 20
-395.604309599
 10
930.6521649438
 20
-389.3825056266
 10
927.7527038386
 20
-383.1002932595
 10
925.0574181875
 20
-376.7735419114
 10
922.5731165159
 20
-370.4182335053
 10
920.3060743855
 20
-364.0504221017
 10
918.2620185414
 20
-357.686193345
 10
916.4461124461
 20
-351.3416238293
 10
914.862943236
 20
-345.0327404878
 10
913.5165101339
 20
-338.7754801074
 10
912.4102143466
 20
-332.5856490708
 10
911.5468504735
 20
-326.4788834285
 10
910.9285994465
 20
-320.4706094005
 10
910.5570230213
 20
-314.5760044084
 10
910.4330598323
 20
-308.809958736
  0
LWPOLYLINE
  5
E6
330
1F
100
AcDbEntity
  8
0
  6
Continuous
 62
     7
370
    25
100
AcDbPolyline
 90
      134
 70
   128
 43
0.0
 10
635.5806539851
 20
-754.3321439754
 10
640.9642601575
 20
-751.3677151868
 10
646.5843618959
 20
-748.5533620993
 10
652.4284185557
 20
-745.8953646352
 10
658.4833897614
 20
-743.3996538261
 10
664.7357645045
 20
-741.0717985788
 10
671.1715912923
 20
-738.9169932485
 10
677.7765092785
 20
-736.9400460485
 10
684.5357803086
 20
-735.1453683211
 10
691.4343218057
 20
-733.5369646941
 10
698.4567404263
 20
-732.1184241447
 10
705.5873664086
 20
-730.8929119918
 10
712.8102885377
 20
-729.863162832
 10
720.1093896501
 20
-729.0314744385
 10
727.4683825971
 20
-728.3997026332
 10
734.8708465878
 20
-727.9692571461
 10
742.3002638305
 20
-727.7410984694
 10
749.7400563904
 20
-727.7157357143
 10
757.173623181
 20
-727.893225475
 10
764.5843770083
 20
-728.2731717024
 10
771.9557815825
 20
-728.8547265881
 10
779.2713884178
 20
-729.6365924555
 10
786.5148735347
 20
-730.6170246563
 10
793.6700738855
 20
-731.7938354628
 10
800.7210234205
 20
-733.16439895
 10
807.6519887141
 20
-734.7256568548
 10
814.4475040725
 20
-736.4741254002
 10
821.0924060439
 20
-738.4059030694
 10
827.5718672536
 20
-740.516679311
 10
833.87142949
 20
-742.8017441577
 10
839.9770359666
 20
-745.2559987365
 10
845.8750626878
 20
-747.8739666456
 10
851.5523488497
 20
-750.649806175
 10
856.996226207
 20
-753.5773233413
 10
862.1945473406
 20
-756.649985709
 10
867.1357127635
 20
-759.8609369668
 10
871.8086968033
 20
-763.2030122269
 10
876.2030722056
 20
-766.6687540126
 10
880.3090334004
 20
-770.2504288988
 10
884.1174183829
 20
-773.9400447682
 10
887.619729157
 20
-777.7293686453
 10
890.8081506977
 20
-781.6099450666
 10
893.6755683901
 20
-785.5731149488
 10
896.2155839038
 20
-789.6100349102
 10
898.4225294712
 20
-793.7116970039
 10
900.2914805337
 20
-797.8689488178
 10
901.8182667307
 20
-802.0725138976
 10
902.9994812052
 20
-806.3130124459
 10
903.8324882057
 20
-810.5809822523
 10
904.315428968
 20
-814.8668998073
 10
904.4472258623
 20
-819.1612015529
 10
904.2275847984
 20
-823.4543052228
 10
903.6569958811
 20
-827.736631224
 10
902.7367323176
 20
-831.9986240127
 10
901.4688475758
 20
-836.2307734164
 10
899.8561708021
 20
-840.423635855
 10
897.9023005092
 20
-844.5678554128
 10
895.6115965456
 20
-848.6541847155
 10
892.9891703676
 20
-852.6735055647
 10
890.0408736334
 20
-856.6168492838
 10
886.7732851459
 20
-860.4754167311
 10
883.1936961727
 20
-864.2405979338
 10
879.3100941766
 20
-867.9039913003
 10
875.131144992
 20
-871.4574223677
 10
870.6661734889
 20
-874.8929620417
 10
865.9251427644
 20
-878.2029442899
 10
860.9186319119
 20
-881.3799832477
 10
855.6578124149
 20
-884.4169896988
 10
850.1544232187
 20
-887.3071868943
 10
844.4207445367
 20
-890.0441256742
 10
838.4695704478
 20
-892.6216988578
 10
832.3141803486
 20
-895.0341548714
 10
825.9683093213
 20
-897.2761105825
 10
819.4461174854
 20
-899.342563311
 10
812.7621584014
 20
-901.228901993
 10
805.9313465955
 20
-902.9309174692
 10
798.9689242799
 20
-904.4448118776
 10
791.8904273412
 20
-905.7672071278
 10
784.711650674
 20
-906.8951524389
 10
777.4486129359
 20
-907.8261309239
 10
770.1175208044
 20
-908.5580652058
 10
762.7347328124
 20
-909.0893220528
 10
755.316722847
 20
-909.4187160234
 10
747.8800433888
 20
-909.5455121107
 10
740.4412885778
 20
-909.4694273831
 10
733.0170571846
 20
-909.1906316154
 10
725.6239155724
 20
-908.7097469099
 10
718.2783607312
 20
-908.0278463085
 10
710.996783466
 20
-907.146451398
 10
703.795431823
 20
-906.0675289151
 10
696.6903748336
 20
-904.7934863578
 10
689.6974666582
 20
-903.3271666132
 10
682.8323112093
 20
-901.671841614
 10
676.1102273331
 20
-899.8312050375
 10
669.5462146273
 20
-897.8093640638
 10
663.1549199708
 20
-895.6108302105
 10
656.9506048413
 20
-893.2405092664
 10
650.9471134917
 20
-890.7036903444
 10
645.1578420589
 20
-888.0060340794
 10
639.595708671
 20
-885.1535599974
 10
634.2731246227
 20
-882.1526330835
 10
629.2019666801
 20
-879.009949579
 10
624.3935505796
 20
-875.7325220398
 10
619.8586057777
 20
-872.3276636881
 10
615.6072515095
 20
-868.8029720943
 10
611.6489742087
 20
-865.1663122237
 10
607.9926063399
 20
-861.4257988864
 10
604.6463066894
 20
-857.5897786303
 10
601.6175421603
 20
-853.6668111166
 10
598.9130711104
 20
-849.6656500197
 10
596.5389282723
 20
-845.5952234947
 10
594.500411287
 20
-841.4646142546
 10
592.8020688829
 20
-837.283039304
 10
591.4476907261
 20
-833.0598293715
 10
590.4402989638
 20
-828.80440809
 10
589.7821414809
 20
-824.5262709682
 10
589.4746868842
 20
-820.234964203
 10
589.5186212251
 20
-815.9400633777
 10
589.9138464688
 20
-811.6511520955
 10
590.6594807134
 20
-807.3778005946
 10
591.7538601572
 20
-803.129544393
 10
593.1945428118
 20
-798.9158630115
 10
594.9783139509
 20
-794.746158821
 10
597.1011932835
 20
-790.629736062
 10
599.5584438358
 20
-786.5757800831
 10
602.3445825209
 20
-782.5933368455
 10
605.453392374
 20
-778.6912927373
 10
608.8779364247
 20
-774.8783547445
 10
612.6105731761
 20
-771.1630310228
 10
616.6429736561
 20
-767.5536119122
 10
620.9661400025
 20
-764.0581514381
 10
625.5704255407
 20
-760.6844493397
 10
630.4455563092
 20
-757.4400336654
 10
635.5806539851
 20
-754.3321439754
  0
LWPOLYLINE
  5
E7
330
1F
100
AcDbEntity
  8
0
  6
Continuous
 62
     7
370
    25
100
AcDbPolyline
 90
      126
 70
   128
 43
0.0
 10
648.8035507933
 20
-761.965559821
 10
643.9962139659
 20
-764.8839011508
 10
639.4489472664
 20
-767.9379953487
 10
635.1732374853
 20
-771.1201275075
 10
631.1798854365
 20
-774.4222592854
 10
627.4789786738
 20
-777.8360492108
 10
624.079866009
 20
-781.3528737542
 10
620.9911338957
 20
-784.9638491115
 10
618.2205847391
 20
-788.6598536455
 10
615.775217187
 20
-792.4315509281
 10
613.66120845
 20
-796.2694133246
 10
611.8838986977
 20
-800.1637460614
 10
610.4477775686
 20
-804.1047117162
 10
609.3564728295
 20
-808.0823550676
 10
608.6127412109
 20
-812.0866282433
 10
608.2184614432
 20
-816.1074161017
 10
608.1746295115
 20
-820.1345617839
 10
608.4813561391
 20
-824.1578923701
 10
609.1378665077
 20
-828.1672445784
 10
610.1425022153
 20
-832.1524904369
 10
611.4927254649
 20
-836.1035628688
 10
613.1851254753
 20
-840.0104811222
 10
615.2154270973
 20
-843.8633759825
 10
617.5785016128
 20
-847.6525147029
 10
620.2683796904
 20
-851.3683255902
 10
623.2782664646
 20
-855.0014221836
 10
626.6005587004
 20
-858.5426269658
 10
630.226863999
 20
-861.9829945461
 10
634.1480219987
 20
-865.3138342575
 10
638.354127514
 20
-868.5267321098
 10
642.8345555573
 20
-871.6135720441
 10
647.5779881786
 20
-874.5665564349
 10
652.5724430553
 20
-877.3782257874
 10
657.8053037611
 20
-880.0414775807
 10
663.2633516356
 20
-882.5495842096
 10
668.9327991761
 20
-884.8962099792
 10
674.7993248662
 20
-887.0754271091
 10
680.8481093529
 20
-889.0817307077
 10
687.0638728815
 20
-890.910052678
 10
693.4309138939
 20
-892.5557745199
 10
699.9331486919
 20
-894.0147389974
 10
706.5541520662
 20
-895.2832606395
 10
713.2771987876
 20
-896.3581350504
 10
720.0853058565
 20
-897.2366470042
 10
726.9612754037
 20
-897.9165773033
 10
733.8877381334
 20
-898.3962083848
 10
740.8471971995
 20
-898.6743286591
 10
747.8220724044
 20
-898.75023557
 10
754.7947446081
 20
-898.6237373702
 10
761.7476002354
 20
-898.2951536052
 10
768.6630757696
 20
-897.765314306
 10
775.5237021193
 20
-897.0355578927
 10
782.3121487468
 20
-896.1077277932
 10
789.011267447
 20
-894.9841677871
 10
795.6041356645
 20
-893.6677160843
 10
802.0740992421
 20
-892.1616981561
 10
808.4048144902
 20
-890.4699183345
 10
814.5802894727
 20
-888.5966502022
 10
820.5849244038
 20
-886.546625797
 10
826.4035510545
 20
-884.3250236585
 10
832.021471069
 20
-881.9374557465
 10
837.4244930938
 20
-879.3899532648
 10
842.5989686262
 20
-876.6889514257
 10
847.531826492
 20
-873.8412731944
 10
852.2106058641
 20
-870.854112053
 10
856.6234877397
 20
-867.73501383
 10
860.7593247964
 20
-864.4918576382
 10
864.6076695506
 20
-861.1328359715
 10
868.1588007496
 20
-857.6664340102
 10
871.4037479278
 20
-854.1014081865
 10
874.3343140669
 20
-850.4467640651
 10
876.9430963026
 20
-846.7117335941
 10
879.2235046246
 20
-842.9057517847
 10
881.1697785234
 20
-839.0384328773
 10
882.7770015424
 20
-835.1195460551
 10
884.0411136966
 20
-831.1589907662
 10
884.9589217291
 20
-827.1667717171
 10
885.5281071771
 20
-823.1529735995
 10
885.7472322288
 20
-819.1277356159
 10
885.6157433553
 20
-815.1012258668
 10
885.1339727089
 20
-811.0836156652
 10
884.303137284
 20
-807.0850538431
 10
883.1253358431
 20
-803.1156411149
 10
881.6035436148
 20
-799.1854045614
 10
879.7416047784
 20
-795.3042723014
 10
877.5442227528
 20
-791.4820484117
 10
875.016948316
 20
-787.7283881617
 10
872.1661655823
 20
-784.0527736229
 10
868.9990758764
 20
-780.4644897166
 10
865.5236795419
 20
-776.9726007594
 10
861.7487557313
 20
-773.5859275659
 10
857.6838402299
 20
-770.3130251664
 10
853.3392013671
 20
-767.1621611965
 10
848.7258140777
 20
-764.141295012
 10
843.8553321783
 20
-761.2580575831
 10
838.7400589289
 20
-758.5197322177
 10
833.3929159537
 20
-755.9332361634
 10
827.8274106
 20
-753.5051031337
 10
822.0576018172
 20
-751.2414668034
 10
816.0980646431
 20
-749.1480453142
 10
809.9638533858
 20
-747.2301268305
 10
803.6704635954
 20
-745.492556181
 10
797.2337929206
 20
-743.9397226198
 10
790.6701009501
 20
-742.5755487393
 10
783.9959681397
 20
-741.4034805611
 10
777.2282539278
 20
-740.4264788311
 10
770.3840541481
 20
-739.6470115406
 10
763.4806578432
 20
-739.0670476914
 10
756.5355035911
 20
-738.6880523228
 10
749.5661354545
 20
-738.5109828097
 10
742.5901586619
 20
-738.5362864453
 10
735.6251951363
 20
-738.7638993103
 10
728.68883898
 20
-739.1932464348
 10
721.7986120305
 20
-739.8232432508
 10
714.9719195993
 20
-740.6522983317
 10
708.2260065037
 20
-741.6783174123
 10
701.5779135059
 20
-742.8987086794
 10
695.0444342656
 20
-744.3103893188
 10
688.6420729184
 20
-745.9097933026
 10
682.3870023848
 20
-747.6928803975
 10
676.2950235158
 20
-749.6551463709
 10
670.3815251788
 20
-751.7916343686
 10
664.6614453836
 20
-754.0969474364
 10
659.1492335484
 20
-756.5652621535
 10
653.8588139987
 20
-759.1903433426
 10
648.8035507933
 20
-761.965559821
  0
LWPOLYLINE
  5
E8
330
1F
100
AcDbEntity
  8
0
  6
Continuous
 62
     1
370
    25
100
AcDbPolyline
 90
       18
 70
   128
 43
0.0
 10
858.3192900589
 20
-580.8172214497
 10
863.578641983
 20
-583.7098964693
 10
868.8262582365
 20
-586.3091483605
 10
874.0504293355
 20
-588.6091771759
 10
879.2394981115
 20
-590.6048506518
 10
884.3818857231
 20
-592.2917156604
 10
889.4661174927
 20
-593.6660081462
 10
894.4808485111
 20
-594.7246615254
 10
899.4148889527
 20
-595.4653135282
 10
904.2572290438
 20
-595.8863114704
 10
908.9970636303
 20
-595.9867159411
 10
913.6238162877
 20
-595.7663028986
 10
918.1271629218
 20
-595.2255641705
 10
922.4970548053
 20
-594.3657063564
 10
926.7237410007
 20
-593.1886481353
 10
930.7977901183
 20
-591.6970159844
 10
934.7101113616
 20
-589.8941383182
 10
937.062890254
 20
-588.6147394027
  0
LWPOLYLINE
  5
E9
330
1F
100
AcDbEntity
  8
0
  6
Continuous
 62
     1
370
    25
100
AcDbPolyline
 90
       51
 70
   128
 43
0.0
 10
779.5756898638
 20
-315.8093477527
 10
776.3822198638
 20
-317.8088628014
 10
772.9115745483
 20
-320.3707571851
 10
769.6315072425
 20
-323.2268410317
 10
766.5493370591
 20
-326.3707413013
 10
763.671941525
 20
-329.7954427231
 10
761.0057412348
 20
-333.4933034491
 10
758.5566855238
 20
-337.4560721061
 10
756.3302391929
 20
-341.6749062077
 10
754.3313703146
 20
-346.1403918852
 10
752.5645391469
 20
-350.8425648941
 10
751.033688181
 20
-355.7709328478
 10
749.7422333441
 20
-360.9144986301
 10
748.6930563767
 20
-366.2617849347
 10
747.8884984031
 20
-371.8008598748
 10
747.3303547066
 20
-377.5193636083
 10
747.0198707241
 20
-383.4045359175
 10
746.9577392667
 20
-389.4432446815
 10
747.1440989741
 20
-395.6220151798
 10
747.5785340048
 20
-401.9270601596
 10
748.2600749644
 20
-408.3443105999
 10
749.1872010686
 20
-414.8594471057
 10
750.3578435364
 20
-421.4579318601
 10
751.7693902069
 20
-428.1250410632
 10
753.4186913673
 20
-434.8458977875
 10
755.302066782
 20
-441.6055051736
 10
757.4153139038
 20
-448.3887798943
 10
759.7537172523
 20
-455.1805858112
 10
762.312058935
 20
-461.9657677497
 10
765.0846302914
 20
-468.7291853156
 10
768.0652446307
 20
-475.4557466797
 10
771.2472510366
 20
-482.1304422534
 10
774.6235492088
 20
-488.7383781808
 10
778.1866053058
 20
-495.2648095731
 10
781.9284687562
 20
-501.6951734099
 10
785.8407899994
 20
-508.015121035
 10
789.914839117
 20
-514.210550174
 10
794.1415253124
 20
-520.2676364019
 10
798.5114171959
 20
-526.172863991
 10
803.01476383
 20
-531.9130560693
 10
807.6415164875
 20
-537.4754040239
 10
812.3813510739
 20
-542.8474960814
 10
817.223691165
 20
-548.0173450038
 10
822.1577316066
 20
-552.9734148367
 10
827.1724626251
 20
-557.7046466503
 10
832.2566943947
 20
-562.2004832164
 10
837.3990820063
 20
-566.4508925657
 10
842.5881507823
 20
-570.4463903729
 10
847.8123218813
 20
-574.1780611201
 10
853.0599381347
 20
-577.6375779907
 10
858.3192900589
 20
-580.8172214497
  0
LWPOLYLINE
  5
EA
330
1F
100
AcDbEntity
  8
0
  6
Continuous
 62
     1
370
    25
100
AcDbPolyline
 90
       18
 70
   128
 43
0.0
 10
858.3192900589
 20
-580.8172214497
 10
863.4543877348
 20
-583.9251111397
 10
868.3295185033
 20
-587.169526814
 10
872.9338040415
 20
-590.5432289124
 10
877.2569703879
 20
-594.0386893865
 10
881.2893708679
 20
-597.6481084971
 10
885.0220076193
 20
-601.3634322187
 10
888.44655167
 20
-605.1763702115
 10
891.5553615231
 20
-609.0784143198
 10
894.3415002082
 20
-613.0608575574
 10
896.7987507605
 20
-617.1148135362
 10
898.9216300931
 20
-621.2312362953
 10
900.7054012321
 20
-625.4009404858
 10
902.1460838868
 20
-629.6146218672
 10
903.2404633306
 20
-633.8628780688
 10
903.9860975751
 20
-638.1362295698
 10
904.3813228189
 20
-642.425140852
 10
904.449972022
 20
-645.1093602557
  0
LWPOLYLINE
  5
EB
330
1F
100
AcDbEntity
  8
0
  6
Continuous
 62
     1
370
    25
100
AcDbPolyline
 90
       51
 70
   128
 43
0.0
 10
589.449972022
 20
-645.1093602557
 10
589.584515076
 20
-641.3519772816
 10
590.0674558383
 20
-637.0660597266
 10
590.9004628388
 20
-632.7980899202
 10
592.0816773133
 20
-628.5575913719
 10
593.6084635102
 20
-624.3540262921
 10
595.4774145727
 20
-620.1967744782
 10
597.6843601401
 20
-616.0951123845
 10
600.2243756539
 20
-612.0581924231
 10
603.0917933462
 20
-608.0950225409
 10
606.280214887
 20
-604.2144461196
 10
609.7825256611
 20
-600.4251222425
 10
613.5909106435
 20
-596.735506373
 10
617.6968718384
 20
-593.1538314868
 10
622.0912472407
 20
-589.6880897011
 10
626.7642312805
 20
-586.346014441
 10
631.7053967034
 20
-583.1350631832
 10
636.903717837
 20
-580.0624008156
 10
642.3475951943
 20
-577.1348836493
 10
648.0248813562
 20
-574.3590441199
 10
653.9229080774
 20
-571.7410762107
 10
660.028514554
 20
-569.286821632
 10
666.3280767904
 20
-567.0017567852
 10
672.8075380001
 20
-564.8909805437
 10
679.4524399715
 20
-562.9592028745
 10
686.2479553299
 20
-561.210734329
 10
693.1789206235
 20
-559.6494764243
 10
700.2298701584
 20
-558.2789129371
 10
707.3850705093
 20
-557.1021021306
 10
714.6285556262
 20
-556.1216699298
 10
721.9441624615
 20
-555.3398040624
 10
729.3155670357
 20
-554.7582491767
 10
736.726320863
 20
-554.3783029493
 10
744.1598876536
 20
-554.2008131885
 10
751.5996802135
 20
-554.2261759437
 10
759.0290974562
 20
-554.4543346204
 10
766.4315614469
 20
-554.8847801075
 10
773.7905543939
 20
-555.5165519128
 10
781.0896555062
 20
-556.3482403063
 10
788.3125776354
 20
-557.377989466
 10
795.4432036177
 20
-558.603501619
 10
802.4656222383
 20
-560.0220421683
 10
809.3641637354
 20
-561.6304457954
 10
816.1234347655
 20
-563.4251235228
 10
822.7283527517
 20
-565.4020707228
 10
829.1641795395
 20
-567.5568760531
 10
835.4165542826
 20
-569.8847313004
 10
841.4715254883
 20
-572.3804421094
 10
847.3155821481
 20
-575.0384395736
 10
852.9356838865
 20
-577.8527926611
 10
858.3192900589
 20
-580.8172214497
  0
ENDSEC
  0
SECTION
  2
OBJECTS
  0
DICTIONARY
  5
C
330
0
100
AcDbDictionary
281
     1
  3
ACAD_GROUP
350
D
  3
ACAD_LAYOUT
350
1A
  3
ACAD_MLINESTYLE
350
17
  3
ACAD_PLOTSETTINGS
350
19
  3
ACAD_PLOTSTYLENAME
350
E
  3
ACAD_SCALELIST
350
47
  3
DWGPROPS
350
EC
  0
DICTIONARY
  5
D
102
{ACAD_REACTORS
330
C
102
}
330
C
100
AcDbDictionary
281
     1
  0
DICTIONARY
  5
1A
102
{ACAD_REACTORS
330
C
102
}
330
C
100
AcDbDictionary
281
     1
  3
Layout1
350
1E
  3
Layout2
350
26
  3
Model
350
22
  0
DICTIONARY
  5
17
102
{ACAD_REACTORS
330
C
102
}
330
C
100
AcDbDictionary
281
     1
  3
Standard
350
18
  0
DICTIONARY
  5
19
102
{ACAD_REACTORS
330
C
102
}
330
C
100
AcDbDictionary
281
     1
  0
ACDBDICTIONARYWDFLT
  5
E
102
{ACAD_REACTORS
330
C
102
}
330
C
100
AcDbDictionary
281
     1
  3
Normal
350
F
100
AcDbDictionaryWithDefault
340
F
  0
DICTIONARY
  5
47
102
{ACAD_REACTORS
330
C
102
}
330
C
100
AcDbDictionary
281
     1
  3
A0
350
48
  3
A1
350
49
  3
A2
350
4A
  3
A3
350
4B
  3
A4
350
4C
  3
A5
350
4D
  3
A6
350
4E
  3
A7
350
4F
  3
A8
350
50
  3
A9
350
51
  3
B0
350
52
  3
B1
350
53
  3
B2
350
54
  3
B3
350
55
  3
B4
350
56
  3
B5
350
57
  3
B6
350
58
  3
B7
350
59
  3
B8
350
5A
  3
B9
350
5B
  3
C0
350
5C
  3
C1
350
5D
  3
C2
350
5E
  3
C3
350
5F
  3
C4
350
60
  3
C5
350
61
  3
C6
350
62
  3
C7
350
63
  3
C8
350
64
  3
C9
350
65
  3
D0
350
66
  3
D1
350
67
  3
D2
350
68
  0
XRECORD
  5
EC
102
{ACAD_REACTORS
330
C
102
}
330
C
100
AcDbXrecord
280
     1
  1
DWGPROPS COOKIE
  2

  3

  4

  6

  7

  8
b.kav
  9

300
=
301
=
302
=
303
=
304
=
305
=
306
=
307
=
308
=
309
=
 40
0.0
 41
2459935.574918437
 42
2459935.574918623
  1

 90
        0
  0
LAYOUT
  5
1E
102
{ACAD_REACTORS
330
1A
102
}
330
1A
100
AcDbPlotSettings
  1

  2
none_device
  4

  6

 40
0.0
 41
0.0
 42
0.0
 43
0.0
 44
0.0
 45
0.0
 46
0.0
 47
0.0
 48
0.0
 49
0.0
140
0.0
141
0.0
142
1.0
143
1.0
 70
   688
 72
     1
 73
     0
 74
     5
  7

 75
    16
147
1.0
148
0.0
149
0.0
100
AcDbLayout
  1
Layout1
 70
     1
 71
     1
 10
0.0
 20
0.0
 11
420.0
 21
297.0
 12
0.0
 22
0.0
 32
0.0
 14
1.0000000000E+20
 24
1.0000000000E+20
 34
1.0000000000E+20
 15
-1.0000000000E+20
 25
-1.0000000000E+20
 35
-1.0000000000E+20
146
0.0
 13
0.0
 23
0.0
 33
0.0
 16
1.0
 26
0.0
 36
0.0
 17
0.0
 27
1.0
 37
0.0
 76
     0
330
1B
  0
LAYOUT
  5
26
102
{ACAD_REACTORS
330
1A
102
}
330
1A
100
AcDbPlotSettings
  1

  2
none_device
  4

  6

 40
0.0
 41
0.0
 42
0.0
 43
0.0
 44
0.0
 45
0.0
 46
0.0
 47
0.0
 48
0.0
 49
0.0
140
0.0
141
0.0
142
1.0
143
1.0
 70
   688
 72
     1
 73
     0
 74
     5
  7

 75
    16
147
1.0
148
0.0
149
0.0
100
AcDbLayout
  1
Layout2
 70
     1
 71
     2
 10
0.0
 20
0.0
 11
0.0
 21
0.0
 12
0.0
 22
0.0
 32
0.0
 14
0.0
 24
0.0
 34
0.0
 15
0.0
 25
0.0
 35
0.0
146
0.0
 13
0.0
 23
0.0
 33
0.0
 16
1.0
 26
0.0
 36
0.0
 17
0.0
 27
1.0
 37
0.0
 76
     0
330
23
  0
LAYOUT
  5
22
102
{ACAD_REACTORS
330
1A
102
}
330
1A
100
AcDbPlotSettings
  1

  2
none_device
  4
Letter_(8.50_x_11.00_Inches)
  6

 40
6.35
 41
6.35
 42
6.35000508
 43
6.35000508
 44
215.9
 45
279.4
 46
0.0
 47
0.0
 48
0.0
 49
0.0
140
0.0
141
0.0
142
1.0
143
1.0
 70
  1712
 72
     1
 73
     0
 74
     0
  7

 75
     0
147
1.0
148
0.0
149
0.0
100
AcDbLayout
  1
Model
 70
     1
 71
     0
 10
0.0
 20
0.0
 11
279.4
 21
215.9
 12
0.0
 22
0.0
 32
0.0
 14
0.0
 24
0.0
 34
0.0
 15
279.4
 25
215.9
 35
0.0
146
0.0
 13
0.0
 23
0.0
 33
0.0
 16
1.0
 26
0.0
 36
0.0
 17
0.0
 27
1.0
 37
0.0
 76
     0
330
1F
331
29
  0
MLINESTYLE
  5
18
102
{ACAD_REACTORS
330
17
102
}
330
17
100
AcDbMlineStyle
  2
Standard
 70
     0
  3

 62
   256
 51
90.0
 52
90.0
 71
     2
 49
0.5
 62
   256
  6
BYLAYER
 49
-0.5
 62
   256
  6
BYLAYER
  0
ACDBPLACEHOLDER
  5
F
102
{ACAD_REACTORS
330
E
102
}
330
E
  0
SCALE
  5
48
102
{ACAD_REACTORS
330
47
102
}
330
47
100
AcDbScale
 70
     0
300
1:1
140
1.0
141
1.0
290
     1
  0
SCALE
  5
49
102
{ACAD_REACTORS
330
47
102
}
330
47
100
AcDbScale
 70
     0
300
1:2
140
1.0
141
2.0
290
     0
  0
SCALE
  5
4A
102
{ACAD_REACTORS
330
47
102
}
330
47
100
AcDbScale
 70
     0
300
1:4
140
1.0
141
4.0
290
     0
  0
SCALE
  5
4B
102
{ACAD_REACTORS
330
47
102
}
330
47
100
AcDbScale
 70
     0
300
1:5
140
1.0
141
5.0
290
     0
  0
SCALE
  5
4C
102
{ACAD_REACTORS
330
47
102
}
330
47
100
AcDbScale
 70
     0
300
1:8
140
1.0
141
8.0
290
     0
  0
SCALE
  5
4D
102
{ACAD_REACTORS
330
47
102
}
330
47
100
AcDbScale
 70
     0
300
1:10
140
1.0
141
10.0
290
     0
  0
SCALE
  5
4E
102
{ACAD_REACTORS
330
47
102
}
330
47
100
AcDbScale
 70
     0
300
1:16
140
1.0
141
16.0
290
     0
  0
SCALE
  5
4F
102
{ACAD_REACTORS
330
47
102
}
330
47
100
AcDbScale
 70
     0
300
1:20
140
1.0
141
20.0
290
     0
  0
SCALE
  5
50
102
{ACAD_REACTORS
330
47
102
}
330
47
100
AcDbScale
 70
     0
300
1:30
140
1.0
141
30.0
290
     0
  0
SCALE
  5
51
102
{ACAD_REACTORS
330
47
102
}
330
47
100
AcDbScale
 70
     0
300
1:40
140
1.0
141
40.0
290
     0
  0
SCALE
  5
52
102
{ACAD_REACTORS
330
47
102
}
330
47
100
AcDbScale
 70
     0
300
1:50
140
1.0
141
50.0
290
     0
  0
SCALE
  5
53
102
{ACAD_REACTORS
330
47
102
}
330
47
100
AcDbScale
 70
     0
300
1:100
140
1.0
141
100.0
290
     0
  0
SCALE
  5
54
102
{ACAD_REACTORS
330
47
102
}
330
47
100
AcDbScale
 70
     0
300
2:1
140
2.0
141
1.0
290
     0
  0
SCALE
  5
55
102
{ACAD_REACTORS
330
47
102
}
330
47
100
AcDbScale
 70
     0
300
4:1
140
4.0
141
1.0
290
     0
  0
SCALE
  5
56
102
{ACAD_REACTORS
330
47
102
}
330
47
100
AcDbScale
 70
     0
300
8:1
140
8.0
141
1.0
290
     0
  0
SCALE
  5
57
102
{ACAD_REACTORS
330
47
102
}
330
47
100
AcDbScale
 70
     0
300
10:1
140
10.0
141
1.0
290
     0
  0
SCALE
  5
58
102
{ACAD_REACTORS
330
47
102
}
330
47
100
AcDbScale
 70
     0
300
100:1
140
100.0
141
1.0
290
     0
  0
SCALE
  5
59
102
{ACAD_REACTORS
330
47
102
}
330
47
100
AcDbScale
 70
     0
300
1/128" = 1'-0"
140
0.0078125
141
12.0
290
     0
  0
SCALE
  5
5A
102
{ACAD_REACTORS
330
47
102
}
330
47
100
AcDbScale
 70
     0
300
1/64" = 1'-0"
140
0.015625
141
12.0
290
     0
  0
SCALE
  5
5B
102
{ACAD_REACTORS
330
47
102
}
330
47
100
AcDbScale
 70
     0
300
1/32" = 1'-0"
140
0.03125
141
12.0
290
     0
  0
SCALE
  5
5C
102
{ACAD_REACTORS
330
47
102
}
330
47
100
AcDbScale
 70
     0
300
1/16" = 1'-0"
140
0.0625
141
12.0
290
     0
  0
SCALE
  5
5D
102
{ACAD_REACTORS
330
47
102
}
330
47
100
AcDbScale
 70
     0
300
3/32" = 1'-0"
140
0.09375
141
12.0
290
     0
  0
SCALE
  5
5E
102
{ACAD_REACTORS
330
47
102
}
330
47
100
AcDbScale
 70
     0
300
1/8" = 1'-0"
140
0.125
141
12.0
290
     0
  0
SCALE
  5
5F
102
{ACAD_REACTORS
330
47
102
}
330
47
100
AcDbScale
 70
     0
300
3/16" = 1'-0"
140
0.1875
141
12.0
290
     0
  0
SCALE
  5
60
102
{ACAD_REACTORS
330
47
102
}
330
47
100
AcDbScale
 70
     0
300
1/4" = 1'-0"
140
0.25
141
12.0
290
     0
  0
SCALE
  5
61
102
{ACAD_REACTORS
330
47
102
}
330
47
100
AcDbScale
 70
     0
300
3/8" = 1'-0"
140
0.375
141
12.0
290
     0
  0
SCALE
  5
62
102
{ACAD_REACTORS
330
47
102
}
330
47
100
AcDbScale
 70
     0
300
1/2" = 1'-0"
140
0.5
141
12.0
290
     0
  0
SCALE
  5
63
102
{ACAD_REACTORS
330
47
102
}
330
47
100
AcDbScale
 70
     0
300
3/4" = 1'-0"
140
0.75
141
12.0
290
     0
  0
SCALE
  5
64
102
{ACAD_REACTORS
330
47
102
}
330
47
100
AcDbScale
 70
     0
300
1" = 1'-0"
140
1.0
141
12.0
290
     0
  0
SCALE
  5
65
102
{ACAD_REACTORS
330
47
102
}
330
47
100
AcDbScale
 70
     0
300
1-1/2" = 1'-0"
140
1.5
141
12.0
290
     0
  0
SCALE
  5
66
102
{ACAD_REACTORS
330
47
102
}
330
47
100
AcDbScale
 70
     0
300
3" = 1'-0"
140
3.0
141
12.0
290
     0
  0
SCALE
  5
67
102
{ACAD_REACTORS
330
47
102
}
330
47
100
AcDbScale
 70
     0
300
6" = 1'-0"
140
6.0
141
12.0
290
     0
  0
SCALE
  5
68
102
{ACAD_REACTORS
330
47
102
}
330
47
100
AcDbScale
 70
     0
300
1'-0" = 1'-0"
140
12.0
141
12.0
290
     0
  0
ENDSEC
  0
EOF
